Song name
# A B C D E F G H I J K L M N O P Q R S T U V W X Y Z

Mayday Parade - No Heroes Allowed tab

-------------------------------------------------------------------------------
			     No Heroes Allowed - Mayday Parade
-------------------------------------------------------------------------------
Tabbed by: Luke DeMuro
Email: lukedemuro@yahoo.com

If you'd like to see the solo played, watch my video on youtube:
http://www.youtube.com/watch?v=GkgeG6-RKHc
(I was tuned low at the time, so I'm playing it higher on the fretboard, but all the 
notes, bends, hammer ons, pull offs, etc. are still right!)

Good luck! :) you can email me if you have any questions.

Tuning: Standard

e|---------------------------------------------------11--------11-------11-------11-----|
B|----------------------------------6/8-------------------------------------------------|
G|------------------------------8---------8----10b12----10b12-----10b12-----10b12-------|
D|-----------------5h6h8-5h6h8----------------------------------------------------------|
A|-----5h6h8-5h6h8----------------------------------------------------------------------|
E|--------------------------------------------------------------------------------------|

e|-----------------------------------------------------------------------------------|
B|-----------------------------------------------------------------------------------|
G|---12br10--8--10---8-----10--8----8------------------------------------------------|
D|-------------------------------10----10--8--10--8----8-------10--8----8------------|
A|--------------------------------------------------10---10--8-------10----10--8--6--|
E|-----------------------------------------------------------------------------------|

e|-----------------------------------------------------------------------------------|
B|-----------------------------------------------------------11----------------------|
G|------------------------------------8------8--10--8-10/12--------------------------|
D|-----------------8----8--10--8--10-----10------------------------------------------|
A|---8p6h8/10p8h10---10--------------------------------------------------------------|
E|-----------------------------------------------------------------------------------|

e|----------------------------------13b15br13p11h13b15~~-----------------------------|
B|----------11---------11--------11-------------------------11-----11-------11/9--8--|
G|---10h12-----10h12-------10h12-----------------------10h12--10h12--10h12--12/10-8--|
D|-----------------------------------------------------------------------------------|
A|-----------------------------------------------------------------------------------|
E|-----------------------------------------------------------------------------------|

e|----13p11-11-15p11-11-13p11-11-15p11-11-16p15-15-18p15-15-16p15-15-18p15-15--------|
B|-----------------------------------------------------------------------------------|
G|-----------------------------------------------------------------------------------|
D|-----------------------------------------------------------------------------------|
A|-----------------------------------------------------------------------------------|
E|-----------------------------------------------------------------------------------|

e|----18b20br18-15--------15------15--18b20br18-15-----------------------------------|
B|------------------18b20---18b20-------------------16----16-16~~--------------------|
G|-----------------------------------------------------15----------------------------|
D|-----------------------------------------------------------------------------------|
A|-----------------------------------------------------------------------------------|
E|-----------------------------------------------------------------------------------|



************************************

| /   slide up
| \   slide down
| h   hammer-on
| p   pull-off
| ~   vibrato
| +   harmonic
| x   Mute note
| b   Bend
| pb  Pre-bend
| br  Bend release
| pbr Pre-bend release
| brb Bend release bend

************************************
Tap to rate this tab
 
# A B C D E F G H I J K L M N O P Q R S T U V W X Y Z