Song name
# A B C D E F G H I J K L M N O P Q R S T U V W X Y Z

Mayday Parade - Kids In Love tab

-----------------------------------------------------------------------------
                             Kids In Love - Mayday Parade
-----------------------------------------------------------------------------

I know this song has been tabbed a couple of times before, but a lot of them didn't 
really have correct and complete lead guitar parts.

So here is my take on it:

-Lead (Alex)-

Intro
e|---------------------------------------------------------------------------------|
B|-11---11---11-9-9-8-8--6-6-6-66-6-3-3-3-33-3-1-11-3-33-4444444444444444-66666666-|
G|----8----8-----8---8-------------------------------------------------------------|
D|---------------------------------------------------------------------------------|
A|---------------------------------------------------------------------------------|
D|---------------------------------------------------------------------------------|

Verse:
e|-----------------------------------------------------------------------------------|
B|-1111111111111111-9999-8888-66666666-33333333-1111-3333-4444444444444444-66666666--|
G|-----------------------------------------------------------------------------------|
D|-----------------------------------------------------------------------------------|
A|-----------------------------------------------------------------------------------|
D|-----------------------------------------------------------------------------------|

Pre-chorus
e|-----------------------------------------------------------------------------|
B|-11-11-11-11--8-8-6-6----------------11-11--8-8-6-6---------11-11-8-8-11-11--|
G|---8--8--8--8--8---8-8--(x2)--8--8-----8--8--8---8-8--8--8----8--8-8----8--8-|
D|-------------------------------10-10-------------------10-10-----------------|
A|-----------------------------------------------------------------------------|
D|-----------------------------------------------------------------------------|
     *  *  *  *  *   * *          *  *   *  *  *   * *   *  *   *  * *    *  *

Chorus:
e|---------------------------------------------------------------------------|
B|---------------------------------------------------------------------------|
G|-1515151515151515-13131313-12121212-1010101010101010-77777777-5555-7777----|
D|--x-x-x-x-x-x-x-x-x-x-x-x--x-x-x-x--x-x-x-x-x-x-x-x--xxxxxxxx-xxxx-xxxx----|
A|-1313131313131313-11111111-10101010-8-8-8-8-8-8-8-8--55555555-3333-5555----|
D|---------------------------------------------------------------------------|

e|---------------------------------------------------------------------------|
B|---------------------------------------------------------------------------|
G|-8888888888888888-1010101010101010-----------------------------------------|
D|-xxxxxxxxxxxxxxxx-x-x-x-x-x-x-x-x------------------------------------------|
A|-6666666666666666-8-8-8-8-8-8-8-8------------------------------------------|
D|---------------------------------------------------------------------------|

Play through the verse, pre chorus and chorus again

Bridge
e|---------------------|
B|---------------------|
G|-88---88---88---88---| Repeat as many times as necessary over the piano.
D|-88-6-88-8-88-6-88-8-|
A|-66-6-66-8-66-6-66-8-|
D|----6----8----6----8-|

Solo
e|-----------------------------------8-----8-11---------------|
B|---------------------------------11----11------13-11--------|
G|--------------------8-10-10br8-------8---------------13-12--|
D|-------------8--8h10------------8---------------------------|
A|-3-5-6---5-6------------------------------------------------|
D|-------6----------------------------------------------------|

e|-------------------------------------------------------18-------------------------|
B|-------------11----9-9-9--9-8-----------15-16----15-16-------15-16----15-16-18-16-|
G|-5-7-8---7-8-----8------------10-8---17-------15----------17-------15-------------|
D|-------6--------------------------------------------------------------------------|
A|----------------------------------------------------------------------------------|
D|----------------------------------------------------------------------------------|

Break
e|---------------------------------------------------------------------------------|
B|-1111111111111111-9999-8888-66666666-66666666---4~----4~-------------------------|
G|-8-8-8-8-8-8-8-8--8888-8888-88888888-77777777---5~----7~----8~----8~----10~------|
D|---------------------------------------------------------------------------------|
A|---------------------------------------------------------------------------------|
D|---------------------------------------------------------------------------------|

Repeat chorus twice.

Outro
e|------------------------------------------------------------------------|
B|------------------------------------------------------------------------|
G|--------------------------------------------------------------8~--------|
D|-------------8~--8-6-5-3--5-3--------------8~--8-6-5-3--8-8---8~--------|
A|-3-5-6---5-6-------------------3-5-6---5-6--------------------6~--------|
D|-------6-----------------------------6----------------------------------|


Here's the rhythm part for the sake of playing in a band or for two guitars (credits go 
to XxGuitarZer0xX):

-Rhythm (Brooks)-

Verse
e|-------------------------------------------------------------------------|
B|-------------------------------------------------------------------------|
G|-88888888-77777777-55555555-33333333-------------------------------------|
D|-88888888-88888888-55555555-33333333-66666666-11111111-66666666-88888888-|
A|-66666666-55555555-33333333-11111111-66666666-11111111-66666666-88888888-|
D|-------------------------------------66666666-11111111-66666666-88888888-|
PM ******** ******** ******** ******** ******** ******** ******** ********

Pre-chorus
e|---------------------------------------------------------------|
B|---------------------------------------------------------------|
G|-8--------------8--------------8-------------------------------|
D|-8-6-66-11-8-88-8-6-66-11-8-88-8-6-6-11-8-88-66666666-88888888-|
A|-6-6-66-11-8-88-6-6-66-11-8-88-6-6-6-11-8-88-66666666-88888888-|
D|---6-66-11-8-88---6-66-11-8-88---6-6-11-8-88-66666666-88888888-|

Chorus
e|--------------------------------------|
B|--------------------------------------|
G|-88888888-----------------------------|
D|-88888888-66666666-88888888-55555555--|
A|-66666666-66666666-88888888-55555555--|
D|----------66666666-88888888-55555555--|

e|--------------------------------------|
B|--------------------------------------|
G|--5555-3333---------------------------|
D|--5555-3333-6666666666666666-88888888-|
A|--3333-1111-6666666666666666-88888888-|
D|------------6666666666666666-88888888-|

Repeat verse, pre-chorus and chorus

Bridge
e|---------------------|
B|---------------------|
G|-88---88---88---88---| Repeat through whole bridge
D|-88-6-88-8-88-6-88-8-|
A|-66-6-66-8-66-6-66-8-|
D|----6----8----6----8-|

Final Chorus
e|-------------------------------------------------------------------------|
B|-------------------------------------------------------------------------|
G|-88888888----------------------------5555-3333---------------------------|
D|-88888888-66666666-88888888-55555555-5555-3333-6666666666666666-88888888-|
A|-66666666-66666666-88888888-55555555-3333-1111-6666666666666666-88888888-|
D|----------66666666-88888888-55555555-----------6666666666666666-88888888-|

Outro
e|------------------------------------------|
B|------------------------------------------|
G|-88-8------88-8------88-8------8----------|
D|-88-8-66-6-88-8-88-8-88-8-66-6-8-88-88-1~-|
A|-66-6-66-6-68-6-88-8-66-6-66-6-6-88-88-1~-|
D|------66-6------88-8------66-6---88-88-1~-|
Tap to rate this tab
# A B C D E F G H I J K L M N O P Q R S T U V W X Y Z