Song name
# A B C D E F G H I J K L M N O P Q R S T U V W X Y Z

Mayday Parade - Happy Endings Are Stories That Havent Ended Yet tab

e----------------5---7---5--7--8---8/10--10--8--7--5---------5--7--8--7---5--5------|
B--7/8--8--7--8---------------------------------------7/8--8------------------------|
G-----------------------------------------------------------------------------------|
D-----------------------------------------------------------------------------------|
A-----------------------------------------------------------------------------------|
E-----------------------------------------------------------------------------------|

e|-----------------------------------------------------------------------------|
B|-7/8--8--7---4/5--5---5---5--7--7/8--8----------5----5---7---7/8--8----------|
G|---------------------7--7----------------7-7--7----7-------------------------|
D|-----------------------------------------------------------------------------|
A|-----------------------------------------------------------------------------|
E|-----------------------------------------------------------------------------|

e|-------4/5---5-------------------------------------------------------------------|
B|--7-8------------8--8--7--7---7/8---8--------------------------------------------|
G|---------------------------------------------------------------------------------|
D|---------------------------------------------------------------------------------|
A|---------------------------------------------------------------------------------|
E|---------------------------------------------------------------------------------|
Tap to rate this tab
# A B C D E F G H I J K L M N O P Q R S T U V W X Y Z