Song name
# A B C D E F G H I J K L M N O P Q R S T U V W X Y Z

Mayday Parade - Jamie All Over chords

Highlighted       Show chord diagrams
-------------------------------------------------------------------------------
               Jamie All Over (Valdosta version) - Mayday Parade
-------------------------------------------------------------------------------
Tabbed by:Chris Salazar
E-mail:chris_jsalazar@yahoo.com

Tuning: Half-step down (D#G#C#F#A#D#)
Album: Valdosta EP

my first tab ever! :) 
pretty easy way to play the song I think?
TUNING!! is half step down! don't be lazy tune half-step down and try out
my version:D!I love the Valdosta version of this song so attempted to tab 
out what i heard since no one's done so, or I just can't find it??? i don't
know what the ? chord is. I know this tab isn't 100% so if your better than 
me can you please help fix it;) and i'll definitely give credit for helping!

intro/verses

    D  ?   G  G
D#|-2--0---3--3--------------------------|
A#|-3--2---3--3--------------------------|
F#|-2--2---0--0--------------------------|
C#|-0--0---0--0(2x)----------------------|
G#|-x--4---2--2--------------------------|
D#|-x--x---3--3--------------------------|
  ( play 2x then repeat 2x picking)

chorus

    D  G  Bm  ?   G
D#|-2--3--2---0---3--------------------------|
A#|-3--3--3---2---3--------------------------|
F#|-2--0--4---2---0--------------------------|
C#|-0--0--4---0---0(2x)----------------------|
G#|-x--2--2---4---2--------------------------|
D#|-x--3--x---x---3--------------------------|

Bridge/interlude

    Bm  ?   G  G
D#|-2---0---3--3----------------------------------
A#|-3---2---3--3----------------------------------
F#|-4---2---0--0----------------------------------
C#|-4---0---0--0-(1st time only)------------------
G#|-2---4---2--2-(2nd time come in with ?1 (below)
D#|-x---x---3--3-(after slow strumming the first G
                  ?  D  ....i Had a dream last night we...  ?  
                --0--2--------------------------------------0--|
                --2--3--------------------------------------2--|
                --2--2--------------------------------------2--|
                --0--0--------------------------------------0--|
                --4--x--------------------------------------4--|
                --x--x--------------------------------------x--|

... back to chorus then 

end

     Bm  G  Bm  ?   G       end on D
D#|--2---3--2---0---3--------------2---|
A#|--3---3--3---2---3--------------3---|
F#|--4---0--4---2---0--------------2---|
C#|--4---0--4---0---0--(2x)--------0---|
G#|--2---2--2---4---2--------------x---|
D#|--x---3--x---x---3--------------x---|

lyrics (plan to make easy chord version once all chords are definite!)

I had a dream last night we
Drove out to see Las Vegas
We lost ourselves in the bright lights
I wish you could have seen us
Begging for change to get home
Or at least San Francisco
Let's put a ten on the high card
And spend the summer on the West Coast

Down and to the left
(Here's the map and the pen, the place you pointed at)
Be California's best
(All I ask, All I ask)

And please don't tell me that I'm dreamin'
When all I ever wanted was to dream another sunset with you
If I roll over
When it's over
I'll take this Cali sunrise with me
And wake up with the fondest memories

We made love by the ocean
As the waves crashed around you
Sunsets never were so bright
And the skies never so blue
You opened up into my arms
And we laughed as I held you
I'll never go back to Georgia,
Not at least 'till I have to

Down and to the left
(Here's the map and the pen, the place you pointed at)
Be California's best
(All I ask, All I ask)

And please don't tell me that I'm dreamin'
When all I ever wanted was to dream another sunset with you
If I roll over
When it's over
I'll take this Cali sunrise with me
And wake up with the fondest memories
Memories

I had a dream last night we
Drove out to see Las Vegas
We lost ourselves in the bright lights

And please don't tell me that I'm dreamin'
When all I ever wanted was to dream another sunset with you
If I roll over
When it's over
I'll take this Cali sunrise with me
And wake up with the fondest memories

We made love by the ocean
As the waves crashed around you
Sunsets never were so bright
And the skies never so blue
You opened up into my arms
And we laughed as I held you
I'll never go back to Georgia,
Not at least 'till I have to

Down and to the left
Tap to rate this tab
# A B C D E F G H I J K L M N O P Q R S T U V W X Y Z