Song name
# A B C D E F G H I J K L M N O P Q R S T U V W X Y Z

Mayday Parade - Just Say Youre Not Into It tab

This is for the lead guitar..

e----------------------------------------------|
B----------------------------------------------|
G-5/7-7-7-7-7-7--5/7-7XX8-8-8------------------|
D-----------------------------XX-------|    2-|
A-3/5-5-5-5-5-5--3/5-5XX6-6-6------------------|
E----------------------------------------------|

e------------------------------------------------|
B------------------------------------------------|
G---------------15--------14-------10------------|
D-8---3---1------ 5 ------ 5 ------ 5---------|
A-8---3---1---13--------12-------8---------------|
E-8---3---1--------------------------------------|

e------------------------------------------------------------------------|
B------------------------------------------------------------------------|
G------10-10-------------10-10-----------7-7------------10-10------------|
D-8-8---------  4--7-7-----------4-8-8------- 4 -8-8------------------|
A-8-8----------------8-8----------------6-6-------------8-8--------------|
E------------------------------------------------------------------------|

e-------------------------------------------------------------------------|
B-------------------------------------------------------------------------|
G-------5-5----------10------------10-----------7------------7------------|
D-------------2----8---- 4 ----7---- 4 ----5----- 4 --8---2----------|
A-8-8--------------8------------8--------------6------------8-------------|
E-------------------------------------------------------------------------|

e-----------|
B-----5-----|
G---8-------|
D--7--------|
A-5---------|
E-----------|


I'll do the rest later.
-Andrew Bernier
Tap to rate this tab
# A B C D E F G H I J K L M N O P Q R S T U V W X Y Z