Song name
# A B C D E F G H I J K L M N O P Q R S T U V W X Y Z

Mayday Parade - The Memory tab

Mayday Parade - The Memory
Tuning: Standard


* in honor of hearts that are torn apart, including mine *


Intro 0.00-0.22 Piano only, guitar optional ( one strum each chord)

Guitar 1 Acoustic

e------------3----2---|
B--1----1---------2---|
G-------2---------2---|
D--2----2---------2-3-|
A--3---------2----2-3-|
E------------3----2---|
              (barre chord)

0.23-0.34       strum each chord 8 times

Guitar 2 Acoustic

e-2-0-2-0-2-0-2-0-2-0-2-0-2-0-2-0--3-0-3-0-3-0-3-0-3-0-3-0-3-0-3-0/5-|
B--------------------------------------------------------------------|
G--------------------------------------------------------------------|
D--------------------------------------------------------------------|
A--------------------------------------------------------------------|
E--------------------------------------------------------------------|

e-4-0-4-0-4-0-4-0-4-0-4-0-4-0-4-0--3-0-3-0-3-0-3-0-3-0-3-0-3-0-3-0--|
B-------------------------------------------------------------------|
G-------------------------------------------------------------------|
D-------------------------------------------------------------------|
A-------------------------------------------------------------------|
E-------------------------------------------------------------------|

0.35-0.57

Guitar 3 Electric


e------------9--|
B------9--------|       X8
G--9------9-----|
D---------------|
A---------------|
E---------------|

0.58-1.02

e----------------------------------|
B------------------1-1-1-1-1-1-1-1-|
G----------------------------------|
D-2-2-2-2-2-2-2-2--2-2-2-2-2-2-2-2-|
A-2-2-2-2-2-2-2-2--3-3-3-3-3-3-3-3-|
E----------------------------------|

Chorus 1.03-1.25
Strum each chord of the intro 8 times, X2 total




1.26-1.31

e----------|
B--1----1--|   strum each chord 8 times
G-------2--|
D--2----2--|
A--3-------|
E----------|

Verse 1.32-1.52


e------------3----2-------|
B--1----1---------2-------|
G-------2---------2-------|
D--2----2---------2-3-----|    X2
A--3---------2----2-3-----|
E------------3----2-------|
  X7   X7   X7   X7

Chorus 1.53-2.17

2.18-2.40

e---------------3-----2-------|
B--------1------------3-------|
G--------2------------2-------|
D--2-----2--------------------|
A--2------------2-------------|
E---------------3-------------|
   X8   X8        X8     X8

2.41-3.01 Same strumming pattern and chords as the chorus, ends on strumming the D-chord


3.02-3.53       same strumming pattern and chords as the chor
3.54-end  first half of verse, guitar optional

/ slide up
Tap to rate this tab
 
# A B C D E F G H I J K L M N O P Q R S T U V W X Y Z