Song name
# A B C D E F G H I J K L M N O P Q R S T U V W X Y Z

Mayday Parade - Youre Dead Wrong tab

You're dead wrong lead tab i'm almost 100% positive its correct since some bits are
harder to hear than others.
In some spots i did not write how many times a note was played i just left a mini space
and wrote on top of that certain part to listen for how many notes are played.

enjoy!

Intro Lead. It just repeats for most of it except at one bit it ends on the 2 just 
before the 5\4/5\4
e|-------------------------------------------------|
B|-------------------------------------------------|
G|-----0-------0----------0------0-----------------|
D|---0---0-------0------0---0--2---2--5\4/5\4------|
A|-3--------2-------2h3----------------------------|
E|-------------------------------------------------|

Lead fill. when it does the 10b each 10 you pick after it is bringing it back down from 
the bend.
e|--------------------------------------------------------------------------|
B|-10b-10-10-10-8---8-10p8---8-10p8-------------------8---10/12\10-7/8\7/8\7|
G|----------------9--------9--------9-7--7-5-4--4-5-7---7-------------------|
D|--------------------------------------------------------------------------|
A|--------------------------------------------------------------------------|
E|--------------------------------------------------------------------------|

Play intro lead again until you get to
She's got broken things where her heart should be but I can tell there are moments...

You then play
Lead fill 2. Listen for timing and how many times to pick certain notes
e|-------------------------------------------------------------------|
B|-------------------------------------------------------------------|
G|-----------------------------------------9p7-7--------7-7h9p7------|
D|-----5-5--5-7/9-7-5-7-5------5-5--5-7/9---------9--7----------7----|
A|-5h7----------------------5h7--------------------------------------|
E|-------------------------------------------------------------------|

e|---------------------------------------------------------------------------|
B|-----------------------------------------------------------------10b-8h10p8|
G|---------------------------------12/14\12--9---------(7)--(7)--7-----------|
D|-----5-5--5-7/9-7-5-7-5----------------------9-7-5-5----5----5-------------|
A|-5h7----------------------7--5h7-------------------------------------------|
E|---------------------------------------------------------------------------|

Lead solo.
e|--------------------------------------------------------------------------|
B|-----8-8-10b-10-10-10-10-8-----8-8----------------------------------------|
G|-7/9-----------------------7/9--------------------------------------------|
D|-----------------------------------7/9-9-7-5-5h7p5-----5-5-----5-5-5/7-5/7|
A|---------------------------------------------------5h7-----5h7------------|
E|--------------------------------------------------------------------------|

e|-------------------------------------------------------------------|
B|-------------------------------------------------------------------|
G|-------------------------------5h7-7h9p7-9h11-11h12p11h12/14\12-11-|
D|-(H)7/9\7-5h7/9/10\9-----5h7p5-------------------------------------|
A|---------------------5h7-------------------------------------------|
E|-------------------------------------------------------------------|

e|---------------------------------------------------------------|
B|-------------------17-----17-----17--20----------22b-------22b-|
G|-11h12p11h12-12/16-19b-19-19b-19-19b----19--17-19-----17-19----|
D|---------------------------------------------------------------|
A|---------------------------------------------------------------|
E|---------------------------------------------------------------|

e|---------------------------|
B|---------------------------|
G|-17h19-16h17-12------------|
D|---------------------------|
A|---------------------------|
E|---------------------------|

Lead fill 3. Played 3 times listen for when to play
e|----(H)19------------------|
B|-15------------------------|
G|-------(H)19---------------|
D|---------------------------|
A|---------------------------|
E|---------------------------|

Lead fill 4. Played twice
e|---------------------------------------------------|
B|-----8--------8-------8-------8-------8-------10---|
G|---7---7---7----7---5---5---5---5---4---4---4------|
D|-5-------5--------5-------5-------5-------5--------|
A|---------------------------------------------------|
E|---------------------------------------------------|

e|------------------------------|
B|------------------------------|
G|-7/9\7-------7/9\7------------|
D|-------7/9\7-------7/9\7-5h7-5|
A|------------------------------|
E|------------------------------|

Outro Lead solo. Listen for how many times notes are played and when
e|-------------------------------------------------------------------------|
B|-----8-8--8-10/12-10-8-10-8-----8-8--8-10/12-12/15-15--15--13-12-13-13-15|
G|-7/9------------------------7/9------------------------------------------|
D|-------------------------------------------------------------------------|
A|-------------------------------------------------------------------------|
E|-------------------------------------------------------------------------|

e|---------------------------------------------------------------|
B|--------20----------20--------------10\8-8-13\12----12\10----10|
G|----19-----19----19----19--12-14-12--------------12-------12---|
D|-17-----------17-----------------------------------------------|
A|---------------------------------------------------------------|
E|---------------------------------------------------------------|

e|------------------------10------|
B|-10\8-8/10-8/10-10\8-12----12-10|
G|--------------------------------|
D|--------------------------------|
A|--------------------------------|
E|--------------------------------|

Key
h= Hammer on
(H)= Harmonic
p= Pull off
/= Slide up
\= Slide down
(7)= Played quietly
Tap to rate this tab
# A B C D E F G H I J K L M N O P Q R S T U V W X Y Z