Song name
# A B C D E F G H I J K L M N O P Q R S T U V W X Y Z

Mayday Parade - Somebody That I Used To Know tab

Mayday Parade
Somebody That I Used to Know

https://www.youtube.com/watch?v=BBeJMXZwg10 <-- Video of play through

Rhythm Guitar:

(Listen for strumming)

E|--------------|
B|--------------|
G|--------------|
D|--8--8--5--8--|   X12
A|--6--5--3--5--|
E|--------------|

E|-----------------------------------------------------------------------|
B|-----------------------------------------------------------------------|
G|-----------------------------------------------------------------------|
D|--------------------------------------------------------------------8--|
A|--6--8--8--6--3--3--5--6--6--6-----------6--5--6--8--8--8--8--8--8--6--|
E|--4--6--6--4--1--1--3--4--4--4--2--4--6--------4--6--6--6--6--6--6-----|

You can get addicted to a certain kinda sadness...

E|--------------             -----|
B|--------------             -----|
G|--------------             -----|
D|--8--8--5--8--   X6 End on ---8-|
A|--6--5--3--5--             ---6-|
E|--------------             -----|

But you didn't have to cut me off...

(listen for strumming)

E|---------------|
B|---------------|
G|---------------|
D|---------------| X8
A|--10--8--6--8--|
E|--8---6--4--6--|

Now you're just somebody that I used to know

(listen for strumming)

E|---------------|
B|---------------|
G|---------------|
D|---------8-----|
A|--10--6--6--8--|
E|--8---4-----6--|

But had me believing it was always something that I'd done

E|--------------|
B|--------------|
G|--------------|
D|--8--8--5--8--|   X2
A|--6--5--3--5--|
E|--------------|

But I don't wanna live that way

E|-----------------------------------------------------------------------|
B|-----------------------------------------------------------------------|
G|-----------------------------------------------------------------------|
D|--------------------------------------------------------------------8--|
A|--6--8--8--6--3--3--5--6--6--6-----------6--5--6--8--8--8--8--8--8--6--|
E|--4--6--6--4--1--1--3--4--4--4--2--4--6--------4--6--6--6--6--6--6-----|

But you didn't have to cut me off

E|---------------|
B|---------------|
G|---------------|
D|---------------| X4
A|--10--8--6--8--|
E|--8---6--4--6--|


No you didn't have to stoop so low

E|---------------|
B|---------------|
G|---------------| X4
D|---------8-----|
A|--10--6--6--8--|
E|--8---4-----6--|

--------------------------------------------------------------------------------------------------

Lead Guitar:

E|-------------------------------------|
B|---------8h9--11p8-------------------|
G|--8--10-------------10--8--7---------|
D|------------------------------10--8--|    X2
A|-------------------------------------|
E|-------------------------------------|

Volume Swells

E|-----------------------------------------------------|
B|--11---------------11--------------------------------|
G|--------------------------------8\---------------8\--|
D|-----------------------------------------------------|
A|-----------------------------------------------------|
E|-----------------------------------------------------|

E|----------------------------------|
B|--16------16------16------16------|
G|------15------15------15------15--|
D|----------------------------------|
A|----------------------------------|
E|----------------------------------|

Intro Riff

E|---------------------------------------------------------------------------------------|
B|---------------------------------------11----------------------------------------------|
G|--12--------12--------12-----12------------12-----12-----10--------10--------10-----7--|b
D|------8--8------8--8------8------8--8----------8------8------8--8------8--8------8-----|
A|---------------------------------------------------------------------------------------|
E|---------------------------------------------------------------------------------------|

E|--------------------------------------------------------------------------------|
B|--------------------------------------------------------------------------------|
G|--12--------12--------12-----------8h10/12\10--8--10--------10--------10-----7--|b
D|------8--8------8--8------8--8h10---------------------8--8------8--8------8-----|
A|--------------------------------------------------------------------------------|
E|--------------------------------------------------------------------------------|



You can get addicted to a certain kinda sadness...

E|-----------------------------------------------------------|
B|----------11--------------11-------------8-----------6-----|
G|------12------12------10------10------8-----8-----7-----7--|
D|--13--------------12--------------10-----------8-----------|
A|-----------------------------------------------------------|
E|-----------------------------------------------------------|


Like Resognation to the end, always the end...

E|-----------------------------------------------------------|
B|----------11--------------11-------------8-----------6-----|
G|------12------12------10------10------8-----8-----7-----7--|
D|--13--------------12--------------10-----------8-----------|
A|-----------------------------------------------------------|
E|-----------------------------------------------------------|

But when we found out we could not make sense...

E|-----------------------------------|
B|-----------------------------------|
G|--8--8--7--7--8--8--10/12\10\8-----| X3
D|-----------------------------------|
A|--6--6--5--5--6--8---8/10\8\6------|
E|-----------------------------------|

But I'll admit that I was glad it was over...

(listen for strumming)

E|--11-----|
B|--14b16--|
G|---------|
D|---------|
A|---------|
E|---------|

But you didn't have to cut me off...

(listen for strumming)

E|-----------------------------------|
B|-----------------------------------|
G|--8-7-8-10/12\10\8-----------------| X4
D|-----------------------------------|
A|--6-5-6--8/10\8\6------------------|
E|-----------------------------------|

No you didn't have to stoop so low...

E|------------------------------------------------------------------|
B|--16----------16----------16------16----------18----------18------|
G|------15--15------15--15------15------15--15------15--15------15--|   x4
D|------------------------------------------------------------------|
A|------------------------------------------------------------------|
E|------------------------------------------------------------------|

Now you're just somebody that I used to know

(listen for strumming)

E|----------------------------------|
B|---------8h9--11p8----------------|
G|--8--10-------------10--8--7--15--|
D|----------------------------------|
A|----------------------------------|
E|----------------------------------|

Now and then I think of all the times you screwed me over

E|--------------------------------------------------|
B|--------------------------------------------------|
G|--8-----8-----7-----7-----5-----5-----7-----7-----| X4
D|-----8-----8-----8-----8-----8-----8-----8-----8--|
A|--------------------------------------------------|
E|--------------------------------------------------|

But I don't wanna live that way

E|---------------------------------------------------------------------------------------|
B|---------------------------------------11----------------------------------------------|
G|--12--------12--------12-----12------------12-----12-----10--------10--------10-----7--|b
D|------8--8------8--8------8------8--8----------8------8------8--8------8--8------8-----|
A|---------------------------------------------------------------------------------------|
E|---------------------------------------------------------------------------------------|

E|--------------------------------------------------------------------------------|
B|--------------------------------------------------------------------------------|
G|--12--------12--------12-----------8h10/12\10--8--10--------10--------10-----7--|b
D|------8--8------8--8------8--8h10---------------------8--8------8--8------8-----|
A|--------------------------------------------------------------------------------|
E|--------------------------------------------------------------------------------|

You didn't have to cut me off

E|-----------------------------------|
B|-----------------------------------|
G|--8-7-8-10/12\10\8-----------------| X4
D|-----------------------------------|
A|--6-5-6--8/10\8\6------------------|
E|-----------------------------------|

No you didn't have to stoop so low

E|------------|
B|------------|
G|--8--12--7--|
D|------------|
A|--6--10--5--|
E|------------|

Somebody...

(listen for strumming)

E|----------------------------------|
B|---------8h9--11p8----------------|
G|--8--10-------------10--8--7--15--|
D|----------------------------------|
A|----------------------------------|
E|----------------------------------|

E|----------------------------------------|
B|---------8h9--11p8----------------15-16-|
G|--8--10-------------10--8--7--15--------|
D|----------------------------------------|
A|----------------------------------------|
E|----------------------------------------|
Tap to rate this tab
 
# A B C D E F G H I J K L M N O P Q R S T U V W X Y Z