Song name
# A B C D E F G H I J K L M N O P Q R S T U V W X Y Z

Mayday Parade - Youre Dead Wrong tab

Mayday Parade
You're Dead Wrong


Intro

E|------------------------------------------------------------------------------------------|
B|---------15-------------------------------------------------------------------------------|
G|--14b16------14b16--12------12--14--12------12--14--12----------------7/12\7/14b16--------|
D|------------------------14--------------14--------------14--12--7--9----------------------|
A|------------------------------------------------------------------------------------------|
E|------------------------------------------------------------------------------------------|

E|---------------------------------|
B|---------------------------------|
G|--11h12p11h12p11h12p11h12p11h12--|
D|---------------------------------|
A|---------------------------------|
E|---------------------------------|


Solo


E|-------------------------------------------------------------------------------------------|
B|-------------------------15----------------------------------------------------------------|
G|----------12--12--14b16------14b16--14b16p14--12--------12-12------------------------------|
D|--12--14-----------------------------------------12--14------------12----------------------|
A|---------------------------------------------------------------14------14--12--10--12--10--|
E|-------------------------------------------------------------------------------------------|

E|----------------------------------------------------------|
B|----------------------------------------------------------|
G|-------------------------------------------4--5--4--------|
D|--------5--5--------5--7/9--7/9v--7--5--7-----------7--5--|
A|--5--7--------5--7----------------------------------------|
E|----------------------------------------------------------|

E|------------------------------------------------------------------|
B|--------------------------------------------8--7--7h8p7h8--10b12--|
G|--------------------------4-----4--7--4--7------------------------|
D|--------5-----5--7--5--7-----7------------------------------------|
A|--5--7-----7------------------------------------------------------|
E|------------------------------------------------------------------|


E|--12-----15--12-----15--12-----15-------------15--17b19b17---------15--17h19h17-------------|
B|--15b17------15b17------15b17------15--15h17----------------15h17---------------------------|
G|--------------------------------------------------------------------------------------------|
D|--------------------------------------------------------------------------------------------|
A|--------------------------------------------------------------------------------------------|
E|--------------------------------------------------------------------------------------------|

E|--19--20--17h19--15--|
B|---------------------|
G|---------------------|
D|---------------------|
A|---------------------|
E|---------------------|
Tap to rate this tab
# A B C D E F G H I J K L M N O P Q R S T U V W X Y Z