Song name
# A B C D E F G H I J K L M N O P Q R S T U V W X Y Z

Mayday Parade - Even Robots Need Blankets chords

Highlighted       Show chord diagrams
-----------------------------------------------------------------------------
Even Robots Need Blankets - Mayday Parade
-----------------------------------------------------------------------------
Do email me or drop me an ask on tumblr if there are anything to improve on, thank you. 
Check out my other Mayday Parade transpositions, cheers!

Tabbed by: givemeaclef.tumblr.com
E-mail: givemeaclef@live.com

Tuning: Standard

Intro: (C C Am F)
e|---------------------------------------|
B|-------1---1---0---0---1---------------|
G|---0-----------------------0-----------|
D|-------------------------------2-------|
A|---3-----------------------------------|
E|---------------------------------------|

e|---------------------------------------|
B|-------1---1---0---0---1---------------|
G|---0-----------------------0-----------|
D|-------------------------------2-------|
A|---3-----------------------------------|
E|---------------------------------------|

e|---------------------------------------|
B|-------1---1---0---0---1---------------|
G|---0-----------------------0-----------|
D|---2---------------------------2-------|
A|---0-----------------------------------|
E|---------------------------------------|

e|---------------------------------------|
B|---------------------------------------|
G|-------2---2---0---0-------------------|
D|---3-------------------3---3---2-------|
A|---0-----------------------------------|
E|---------------------------------------|


Main Verse:
C
It happens every time
                            Am                        F
If it counts I'll lose my courage when I need it the most
C
Then it comes crawling up after
           Am                      F
Begs me to ask her what I already know

         Am   G           F                 C
Singing "Oh, love get me out of the cold"
       E              Am                F
If I promise that I take you there with me
           G           F
Would you go, I found
        C              E           Am              F
In one step I'll get closer to heaven than you'll ever know
          G
You may never know

(C C Am F)

C
Feeling out again
                      Am                              F
Go and try to be your man when there's a gun to your head
C                                               Am                          F
After you've found out your good enough wasn't good enough for everyone else

         Am   G           F                 C
Singing "Oh, love get me out of the cold"
          E           Am            F              G
Hold me right by the fire and I'll show you what home means now
 C                     E            Am
The words came with a new kind of sadness 
               F                    G
They meant everything, you mean everything to me 

(C C Am F)

C
I'll take the first train out of this town
         Am                     F                     C
With a glare in my eye and my pockets full, ready to die
                                       Am                        F
And when I get hazy I will think just maybe you're out there somewhere

         Am   G           F                 C
Singing "Oh, love get me out of the cold"
       E              Am                F
If I promise that I take you there with me
           G           F
Would you go, I found
        C              E           Am              F
In one step I'll get closer to heaven than you'll ever know
          G
You may never know

         Am    G          F                C
Singing "Oh, love get me out of the cold"
          E           Am            F             G
Hold me right by the fire and I'll show you what home means now
F           C          E            Am
The words came with a new kind of sadness 
             F                     Ab         C
They meant everything, you mean everything to me

(C C F C)
Tap to rate this tab
# A B C D E F G H I J K L M N O P Q R S T U V W X Y Z