Song name
# A B C D E F G H I J K L M N O P Q R S T U V W X Y Z

Mayday Parade - Angels tab

-----------------------------------------------------------------------------
                                                     Angels - Mayday Parade
-----------------------------------------------------------------------------
Tabbed by: Andrew Lim (Drew)
E-mail: AcerUser95@hotmail.com

Tuning:Standard

e|----2---0-2-----2---------------------------------------------------------|
B|------3-----3-----3--0h2-3-------------------3---------------3-----------2|
G|---------------------------2-4-----2-----2h4---4-2---------4---4-------2--|
D|--0-----------0------0---------0-----0-------------0-----4-------4---2----|
A|---------------------------------0-----0-------------0-2-----------0------|
E|--------------------------------------------------------------------------|

e|---------2-0-2---2--------------------------------------------------------|
B|---------------3-3--------------------------------------------------------|
G|-2-----2---------2--------------------------------------------------------|
D|---2-0-----------0--------------------------------------------------------|
A|--------------------------------------------------------------------------|
E|--------------------------------------------------------------------------|

************************************

| /   slide up
| \   slide down
| h   hammer-on
| p   pull-off
| ~   vibrato
| +   harmonic
| x   Mute note
| b   Bend
| pb  Pre-bend
| br  Bend release
| pbr Pre-bend release
| brb Bend release bend

************************************
Tap to rate this tab
# A B C D E F G H I J K L M N O P Q R S T U V W X Y Z