Song name
# A B C D E F G H I J K L M N O P Q R S T U V W X Y Z

Mayday Parade - Angels tab

-----------------------------------------------------------------------------
                          Angels - Mayday Parade
-----------------------------------------------------------------------------
Tabbed by: Andrew Lim (Drew)
E-mail: AcerUser95@hotmail.com

Tuning:Standard No Capo

^=Harmonics
h=Hammer-on

e|----2---0-2-----2---------------------------------------------------------|
B|------3-----3-----3--0h2-3-------------------3---------------3-----------2|
G|---------------------------2-4-----2-----2h4---4-2---------4---4-------2--|
D|--0-----------0----------------0-----0-------------0-----4-------4---2----|
A|---------------------0-----------0-----0-------------0-2-----------0------|
E|--------------------------------------------------------------------------|

e|---------2-0-2------------------------------------------------------------|
B|---------------3--7^------------------------------------------------------|
G|-2-----2----------7^------------------------------------------------------|
D|---2-0--------------------------------------------------------------------|
A|--------------------------------------------------------------------------|
E|--------------------------------------------------------------------------|
Tap to rate this tab
 
# A B C D E F G H I J K L M N O P Q R S T U V W X Y Z