Song name
# A B C D E F G H I J K L M N O P Q R S T U V W X Y Z

Mayday Parade - 12 Through 15 tab

Intro:

e|--------------------------------------------------------------------------|
B|-9h10-9------------------9h10-9----------9h10-9---------------------------|
G|--------11-9-11~-9~-11~---------11-9-6~---------11-9-11~-9~-11~-7~-6~-----|
D|--------------------------------------------------------------------------|
A|--------------------------------------------------------------------------|
E|--------------------------------------------------------------------------|


Only on 1st Post-Chorus:

e|------------------------------------|
B|-9h10-9-----------------------------|
G|--------11-9-11~-9~-11~-7~-6~-------|
D|------------------------------------|
A|------------------------------------|
E|------------------------------------|


Outro:

e|------------------------------------|
B|-9h10-9-----------------------------|
G|--------11-9-11~-9~-11~-6~-6b~------|
D|------------------------------------|
A|------------------------------------|
E|------------------------------------|


Legend:
h - hammer on
~ - vibrato
b - bend
Tap to rate this tab
# A B C D E F G H I J K L M N O P Q R S T U V W X Y Z