Song name
# A B C D E F G H I J K L M N O P Q R S T U V W X Y Z

Mayday Parade - Last Something That Meant Anything tab

I'm not even sure if this is 90% right but it sounds ok.
Please enjoy! Timing might be a little off.


e----------------------------------|
B----------------------------------|
G--7---7---5---5---4---4-----------|
D--5-5-5-5-5-5-5-5-5-5-5-5-7-5-4-0-|
A----------------------------------|
E----------------------------------|
0:01

e----------------------------------|
B------------------------0---------|
G------0-------0-------0---0-------|
D----0---0---0---0-0-0-------4-0---|
A--7-------7-----------------------|
E----------------------------------|
0:08

e----------------------------------|
B----------------------------------|
G--7---7---5---5---4---4-----------|
D--5-5-5-5-5-5-5-5-5-5-5-5-7-5-4-0-|
A----------------------------------|
E----------------------------------|
0:14

e----------------------------------|
B------------------------0---------|
G------0-------0-------0---0-------|
D----0---0---0---0-0-0-------4-0---|
A--7-------7-----------------------|
E----------------------------------|
0:20

e----------------------------------|
B----------------------------------|
G--7---7---5---5---4---4-----------|
D--5-5-5-5-5-5-5-5-5-5-5-5-7-5-4-0-|
A----------------------------------|
E----------------------------------|
0:27

e----------------------------------|
B------------------------0---------|
G------0-------0-------0---0-------|
D----0---0---0---0-0-0-------4-0---|
A--7-------7-----------------------|
E----------------------------------|
0:33

e----0~------2~------3~------3~----|
B----1~------3~------3~------3~----|
G----0~------2~------0~------0~----|
D----2~------0~------2~------0~----|
A----3~------0~------2~------2~----|
E----x~------x~------0~------3~----|
0:40 C       D       Em      G

e----------------------------------|
B----------------------------------|
G--7---7---5---5---4---4-----------|
D--5-5-5-5-5-5-5-5-5-5-5-5-7-5-4-0-|
A----------------------------------|
E----------------------------------|
0:53

e----------------------------------|
B------------------------0---------|
G------0-------0-------0---0-------|
D----0---0---0---0-0-0-------4-0---|
A--7-------7-----------------------|
E----------------------------------|
0:59

e----------------------------------|
B----------------------------------|
G--7---7---5---5---4---4-----------|
D--5-5-5-5-5-5-5-5-5-5-5-5-7-5-4-0-|
A----------------------------------|
E----------------------------------|
1:06

e----------------------------------|
B------------------------0---------|
G------0-------0-------0---0-------|
D----0---0---0---0-0-0-------4-0---|
A--7-------7-----------------------|
E----------------------------------|
1:11

e----0~------2~------3~------3~----|
B----1~------3~------3~------3~----|
G----0~------2~------0~------0~----|
D----2~------0~------2~------0~----|
A----3~------0~------2~------2~----|
E----x~------x~------0~------3~----|
1:18 C       D       Em      G

e----0------2------3~---2~---0~----|
B----1------3------3~---3~---1~----|
G----0------2------0~---2~---0~----|
D----2------0------2~---0~---2~----|
A----3------0------2~---0~---3~----|
E----x------x------0~---x~---x~----|
1:31 C      D      Em   D    C

e----0~------2~------3~------3~----|
B----1~------3~------3~------3~----|
G----0~------2~------0~------0~----|
D----2~------0~------2~------0~----|
A----3~------0~------2~------2~----|
E----x~------x~------0~------3~----|
1:44 C       D       Em      G

e----3~-------------2~-------------|
B----3~-------------3~-------------|
G----0~-------------2~-------------|
D----2~-------------0~-------------|
A----2~-------------0~-------------|
E----0~-------------x~-------------|
1:50 Em             D

e----0~------2~------3~------3~----|
B----1~------3~------3~------3~----|
G----0~------2~------0~------0~----|
D----2~------0~------2~------0~----|
A----3~------0~------2~------2~----|
E----x~------x~------0~------3~----|
1:56 C       D       Em      G

e----3~-------------2~-------------|
B----3~-------------3~-------------|
G----0~-------------2~-------------|
D----2~-------------0~-------------|
A----2~-------------0~-------------|
E----0~-------------x~-------------|
2:03 Em             D

e----0~------2~------3~------3~----|
B----1~------3~------3~------3~----|
G----0~------2~------0~------0~----|
D----2~------0~------2~------0~----|
A----3~------0~------2~------2~----|
E----x~------x~------0~------3~----|
2:09 C       D       Em      G

e----3~-------------2~-------------|
B----3~-------------3~-------------|
G----0~-------------2~-------------|
D----2~-------------0~-------------|
A----2~-------------0~-------------|
E----0~-------------x~-------------|
2:15 Em             D

e----0~------2~------3~------3~----|
B----1~------3~------3~------3~----|
G----0~------2~------0~------0~----|
D----2~------0~------2~------0~----|
A----3~------0~------2~------2~----|
E----x~------x~------0~------3~----|
2:22 C       D       Em      G

e----3~-------------2~-------------|
B----3~-------------3~-------------|
G----0~-------------2~-------------|
D----2~-------------0~-------------|
A----2~-------------0~-------------|
E----0~-------------x~-------------|
2:28 Em             D

e----0~------2~------3~------3~----|
B----1~------3~------3~------3~----|
G----0~------2~------0~------0~----|
D----2~------0~------2~------0~----|
A----3~------0~------2~------2~----|
E----x~------x~------0~------3~----|
2:35 C       D       Em      G

e----3~-------------2~-------------|
B----3~-------------3~-------------|
G----0~-------------2~-------------|
D----2~-------------0~-------------|
A----2~-------------0~-------------|
E----0~-------------x~-------------|
2:41 Em             D

e----0~------2~------3~------3~----|
B----1~------3~------3~------3~----|
G----0~------2~------0~------2~----|
D----2~------0~------0~------0~----|
A----3~------0~------2~------0~----|
E----x~------x~------3~------2~----|
2:48 C       D       G       Dsus

e----3~-------------2~-------------|
B----3~-------------3~-------------|
G----0~-------------2~-------------|
D----2~-------------0~-------------|
A----2~-------------0~-------------|
E----0~-------------x~-------------|
2:54 Em             D

e----0~------2~------3~------3~----|
B----1~------3~------3~------3~----|
G----0~------2~------0~------2~----|
D----2~------0~------0~------0~----|
A----3~------0~------2~------0~----|
E----x~------x~------3~------2~----|
3:00 C       D       G       Dsus

e----3~-------------2~-------------|
B----3~-------------3~-------------|
G----0~-------------2~-------------|
D----2~-------------0~-------------|
A----2~-------------0~-------------|
E----0~-------------x~-------------|
3:07 Em             D

e----0~------2~------3~------3~----|
B----1~------3~------3~------3~----|
G----0~------2~------0~------2~----|
D----2~------0~------0~------0~----|
A----3~------0~------2~------0~----|
E----x~------x~------3~------2~----|
3:13 C       D       G       Dsus

e----3~-------------2~-------------|
B----3~-------------3~-------------|
G----0~-------------2~-------------|
D----2~-------------0~-------------|
A----2~-------------0~-------------|
E----0~-------------x~-------------|
3:20 Em             D

e----0~------2~------3~------3~----|
B----1~------3~------3~------3~----|
G----0~------2~------0~------2~----|
D----2~------0~------0~------0~----|
A----3~------0~------2~------0~----|
E----x~------x~------3~------2~----|
3:26 C       D       G       Dsus

e----3~-------------2~-------------|
B----3~-------------3~-------------|
G----0~-------------2~-------------|
D----2~-------------0~-------------|
A----2~-------------0~-------------|
E----0~-------------x~-------------|
3:32 Em             D

e----------------------------------|
B----------------------------------|
G--7---7---5---5---4---4-----------|
D--5-5-5-5-5-5-5-5-5-5-5-5-7-5-4-0-|
A----------------------------------|
E----------------------------------|
3:39

e----------------------------------|
B------------------------0---------|
G------0-------0-------0---0-------|
D----0---0---0---0-0-0-------4-0---|
A--7-------7-----------------------|
E----------------------------------|
3:45

e----------------------------------|
B----------------------------------|
G--7---7---5---5---4---4-----------|
D--5-5-5-5-5-5-5-5-5-5-5-5-7-5-4-0-|
A----------------------------------|
E----------------------------------|
3:51

e----------------------------------|
B------------------------0---------|
G------0-------0-------0---0-------|
D----0---0---0---0-0-0-------4-0---|
A--7-------7-----------------------|
E----------------------------------|
3:58

e----------------------------------|
B----------------------------------|
G--7---7---5---5---4---4-----------|
D--5-5-5-5-5-5-5-5-5-5-5-5-7-5-4-0-|
A----------------------------------|
E----------------------------------|
4:04

e----------------------------------|
B------------------------0---------|
G------0-------0-------0---0-------|
D----0---0---0---0-0-0-------4-0---|
A--7-------7-----------------------|
E----------------------------------|
4:11

e----------------------------------|
B----------------------------------|
G--7---7---5---5---4---4-----------|
D--5-5-5-5-5-5-5-5-5-5-5-5-7-5-4-0-|
A----------------------------------|
E----------------------------------|
4:17

e----------------------------------|
B------------------------0---------|
G------0-------0-------0---0-------|
D----0---0---0---0-0-0-------4-0---|
A--7-------7-----------------------|
E----------------------------------|
4:24

e-22-22-22-----22-22-22-20-19-17---| e----------------------------------|
B---20-20-20--20-20-20-------------| B----------------------------------|
G-----------19---------------------| G--7---7---5---5---4---4-----------|
D----------------------------------| D--5-5-5-5-5-5-5-5-5-5-5-5-7-5-4-0-|
A----------------------------------| A----------------------------------|
E----------------------------------| E----------------------------------|
4:30                                 played at same time: softly

e--19-19-19-19-19-19--22--17--19---| e----------------------------------|
B-20-20-20-20-20-20----------------| B------------------------0---------|
G----------------------------------| G------0-------0-------0---0-------|
D----------------------------------| D----0---0---0---0-0-0-------4-0---|
A----------------------------------| A--7-------7-----------------------|
E----------------------------------| E----------------------------------|
4:36                                 played at same time: softly and a bit slower at the ending



created by: Rival_31
Tap to rate this tab
# A B C D E F G H I J K L M N O P Q R S T U V W X Y Z