Song name
# A B C D E F G H I J K L M N O P Q R S T U V W X Y Z

Mayday Parade - When I Get Home Youre So Dead tab

Help us improve GuitareTab! Take a short survey!
-----------------------------------------------------------------------------
            When I Get Home You're So Dead-Mayday Parade
-------------------------------------------------------------------------------
Tabbed by:swosusfinest-Heath Epley
Email:epleyh@student.swosu.edu

Tuning:Drop D

They actually have two versions of this song, a small bit of difference in parts so
this is the version on their LP, A Lesson For Romantics, not the one from
Tales Told By Dead Friends, their EP

Intro/Verse-Guitar 1-Clean
e|-----0-0--0-----1-1--1-----1-1--1-----0-0--0-------------------------------|
B|-----1-1--1-----1-1--1-----3-3--3-----3-3--3-------------------------------|
G|-----2-2--2-----2-2--2-----2-2--2-----0-0--0-------------------------------|
D|-----2-2--2-----3-3--3-----0-0--0-----0-0--0-------------------------------|
A|----0----0------3-3--3-----------------------------------------------------|
D|---------------3----3---3-0----0-----5----5--------------------------------|

Intro/Verse Cont-Guitar 1-Clean       |||Distortion here
e|-----0-0--0-----1-1--1-----3-3--3------------------------------------------|
B|-----1-1--1-----1-1--1-----1-1--1------------------------------------------|
G|-----2-2--2-----2-2--2-----2-2--2------------------------------------------|
D|-----2-2--2-----3-3--3-----0-0--0----0-0-----------------------------------|
A|----0----0------3-3--3---------------0-0-----------------------------------|
D|---------------3----3---3-0----0-----0-0-----------------------------------|

Verse-Both Guitars-Distortion
e|---------------------------------------------------------------------------|
B|---------------------------------------------------------------------------|
G|----2-2-2-2-2-2-2-2--------------------------------------------------------|
D|----2-2-2-2-2-2-2-2-3-3-3-3-3-3-3-3-0-0-0-0-0-0-0-0-0-0-0-0-0-0-0-0--------|
A|----0-0-0-0-0-0-0-0-3-3-3-3-3-3-3-3-0-0-0-0-0-0-0-0-0-0-0-0-0-0-0-0--------|
D|--------------------3-3-3-3-3-3-3-3-0-0-0-0-0-0-0-0-0-0-0-0-0-0-0-0--------|

Verse Cont-Both Guitars-Distortion
e|---------------------------------------------------------------------------|
B|---------------------------------------------------------------------------|
G|----2-2-2-2-2-2-2-2--------------------------------------------------------|
D|----2-2-2-2-2-2-2-2-3-3-3-3-3-3-3-3-0-0-0-0-0-0-0-0----0--0----------------|
A|----0-0-0-0-0-0-0-0-3-3-3-3-3-3-3-3-0-0-0-0-0-0-0-0----0--0----------------|
D|--------------------3-3-3-3-3-3-3-3-0-0-0-0-0-0-0-0----0--0----------------|

Chorus-Guitar 1-Distortion-Repeat 4x
e|---------------------------------------------------------------------------|
B|---------------------------------------------------------------------------|
G|----2--2-2-2-2-2-2---------------------------------------------------------|
D|----2--2-2-2-2-2-2--3--3-3-3-3-3-3--5--5-5-5-5-5-5--3-2-3-3----------------|
A|----0--0-0-0-0-0-0--3--3-3-3-3-3-3--5--5-5-5-5-5-5--3-2-3-3----------------|
D|--------------------3--3-3-3-3-3-3--5--5-5-5-5-5-5--3-2-3-3----------------|

Chorus-Guitar 2-Distortion-Repeat 4x
e|---------------------------------------------------------------------------|
B|---------------------------------------------------------------------------|
G|--------7/9-9-9-9------7/9-9-9-9------7/9-9-9-9-10-9-12-10-10~\------------|
D|----7-7-x-x-x-x-x--3-3-x-x-x-x-x--5-5-x-x-x-x-x--x-x--x--x--x--------------|
A|----7-7-5/7-7-7-7--3-3-5/7-7-7-7--5-5-5/7-7-7-7--8-7-10--8--8~\------------|
D|----7-7------------3-3------------5-5--------------------------------------|

Break After Chorus-Guitar 2-Clean-its close to this, my speakers aren't very good
so it was a little hard to hear this part over the bass
e|----0~-----3~-0---0--------------------------------------------------------|
B|----1~----1----1---1~------------------------------------------------------|
G|----2~---2------2----------------------------------------------------------|
D|----2~-----------2---------------------------------------------------------|
A|----0~---------------------------------------------------------------------|
D|---------------------------------------------------------------------------|

Verse-Guitar 1-Distortion-Palm Muted-Play Twice
e|---------------------------------------------------------------------------|
B|---------------------------------------------------------------------------|
G|----2-2-2-2-2-2-2-2-2-2-2-2-2-2-2-2----------------------------------------|
D|----2-2-2-2-2-2-2-2-2-2-2-2-2-2-2-2-3-3-3-3-3-3-3-3-0-0-0-0-0-0-0-0-0------|
A|----0-0-0-0-0-0-0-0-0-0-0-0-0-0-0-0-3-3-3-3-3-3-3-3-0-0-0-0-0-0-0-0-0------|
D|------------------------------------3-3-3-3-3-3-3-3-0-0-0-0-0-0-0-0-0------|

Verse-Guitar 2-Clean-Does this after he sings "Buy yourself a toy, and cause a..."
Hold each  note and let ring out
e|----0----------------------------------------------------------------------|
B|-----1---------------------------------------------------------------------|
G|------2--------------------------------------------------------------------|
D|-------2-------------------------------------------------------------------|
A|--------0~-----------------------------------------------------------------|
D|---------------------------------------------------------------------------|

Verse Cont-Both Guitars-Distortion
e|---------------------------------------------------------------------------|
B|---------------------------------------------------------------------------|
G|----2--2--2--2-------------------------------------------------------------|
D|----2--2--2--2--3--3--3--3--0--0--0--0--0--0--0--0-------------------------|
A|----0--0--0--0--3--3--3--3--0--0--0--0--0--0--0--0-------------------------|
D|----------------3--3--3--3--0--0--0--0--0--0--0--0-------------------------|

Verse Cont-Both Guitars-Distortion    |||Clean and only one guitar here
e|------------------------------------1~-------------------------------------|
B|------------------------------------1~-------------------------------------|
G|----2--2--2--2----------------------2~-------------------------------------|
D|----2--2--2--2--3--3--3--3--00-00---3~---x-x-x-----------------------------|
A|----0--0--0--0--3--3--3--3--00-00---3~---x-x-x-----------------------------|
D|----------------3--3--3--3--00-00--------x-x-x-----------------------------|

Chorus 2-Guitar 1-Distortion-Repeat 4x
e|---------------------------------------------------------------------------|
B|---------------------------------------------------------------------------|
G|----2--2-2-2-2-2-2---------------------------------------------------------|
D|----2--2-2-2-2-2-2--3--3-3-3-3-3-3--5--5-5-5-5-5-5--3-2-3-3----------------|
A|----0--0-0-0-0-0-0--3--3-3-3-3-3-3--5--5-5-5-5-5-5--3-2-3-3----------------|
D|--------------------3--3-3-3-3-3-3--5--5-5-5-5-5-5--3-2-3-3----------------|

Chorus 2-Guitar 2-Distortion-Repeat 4x
e|---------------------------------------------------------------------------|
B|---------------------------------------------------------------------------|
G|--------7/9-9-9-9------7/9-9-9-9------7/9-9-9-9-10-9-12-10-10~\------------|
D|----7-7-x-x-x-x-x--3-3-x-x-x-x-x--5-5-x-x-x-x-x--x-x--x--x--x--------------|
A|----7-7-5/7-7-7-7--3-3-5/7-7-7-7--5-5-5/7-7-7-7--8-7-10--8--8~\------------|
D|----7-7------------3-3------------5-5--------------------------------------|

Bridge-Guitar 1-Distortion-Play Twice
e|---------------------------------------------------------------------------|
B|---------------------------------------------------------------------------|
G|----2-2-2-2-2-2-2-2-2-2-2-2-2-2-2-2----------------------------------------|
D|----2-2-2-2-2-2-2-2-2-2-2-2-2-2-2-2---3-3-3-3-3-3-3---0-0-0-0-0-0----------|
A|----0-0-0-0-0-0-0-0-0-0-0-0-0-0-0-0---3-3-3-3-3-3-3---0-0-0-0-0-0----------|
D|--------------------------------------3-3-3-3-3-3-3---0-0-0-0-0-0----------|

Bridge-Guitar 2-Distortion-Play Twice
e|---------------------------------------------------------------------------|
B|---------------------------------------------------------------------------|
G|---------10/9-9-9-9------10/9-9-9-9------10/9-9-9-9-------9/10-10/12-12----|
D|-----7-7--x-x-x-x-x--3-3--x-x-x-x-x--0-0--x-x-x-x-x--0-0--x--x--x--x--x----|
A|-----7-7--8/7-7-7-7--3-3--8/7-7-7-7--0-0--8/7-7-7-7--0-0--7/-8--8/10-10----|
D|-----7-7-------------3-3-------------0-0-------------0-0-------------------|

Bridge Cont-Both Guitars-Distortion
e|---------------------------------------------------------------------------|
B|---------------------------------------------------------------------------|
G|---------------------------------------------------------------------------|
D|----777777-7-7-7-777777-7-7-7-333333-3-3-3-000000-0-0-0--------------------|
A|----777777-7-7-7-777777-7-7-7-333333-3-3-3-000000-0-0-0--------------------|
D|----777777-7-7-7-777777-7-7-7-333333-3-3-3-000000-0-0-0--------------------|
      ......       ......       ......       ......
Bridge Cont-Both Guitars-Distortion            
e|---------------------------------------------------------------------------|
B|---------------------------------------------------------------------------|
G|---------------------------------------------------------------------------|
D|----777777-7-7-7-777777-7-7-7-333333-3-3-3-3-0-0---------------------------|
A|----777777-7-7-7-777777-7-7-7-333333-3-3-3-3-0-0---------------------------|
D|----777777-7-7-7-777777-7-7-7-333333-3-3-3-3-0-0---------------------------|
      ......       ......       ...... .......
Break-Guitar 1-Clean                  |||Distortion and both guitars kick in     here
e|-----0-0--0-----1-1--1-----3-3--3------------------------------------------|
B|-----1-1--1-----1-1--1-----1-1--1------------------------------------------|
G|-----2-2--2-----2-2--2-----2-2--2------------------------------------------|
D|-----2-2--2-----3-3--3-----0-0--0----2-2-3--3-3-3--7~--0-000000--3-2-3-5\--|
A|----0----0------3-3--3---------------2-2-3--3-3-3--7~--0-000000--3-2-3-5\--|
D|---------------3----3---3-0----0-----2-2-3--3-3-3--7~--0-000000--3-2-3-5\--|
                                                           ......
Chorus 3-Guitar 1-Distortion-Play 2x
e|---------------------------------------------------------------------------|
B|---------------------------------------------------------------------------|
G|----2--2-2-2-2-2-2---------------------------------------------------------|
D|----2--2-2-2-2-2-2--3--3-3-3-3-3-3--5--5-5-5-5-5-5--3-2-3-3----------------|
A|----0--0-0-0-0-0-0--3--3-3-3-3-3-3--5--5-5-5-5-5-5--3-2-3-3----------------|
D|--------------------3--3-3-3-3-3-3--5--5-5-5-5-5-5--3-2-3-3----------------|

Chorus 3-Guitar 2-Distortion-Play 2x then go to solo/outro
e|---------------------------------------------------------------------------|
B|---------------------------------------------------------------------------|
G|--------7/9-9-9-9------7/9-9-9-9------7/9-9-9-9-10-9-12-10-10~\------------|
D|----7-7-x-x-x-x-x--3-3-x-x-x-x-x--5-5-x-x-x-x-x--x-x--x--x--x--------------|
A|----7-7-5/7-7-7-7--3-3-5/7-7-7-7--5-5-5/7-7-7-7--8-7-10--8--8~\------------|
D|----7-7------------3-3------------5-5--------------------------------------|

Chorus 3/Solo/Outro-Guitar 1-Distortion-Play 4x
e|---------------------------------------------------------------------------|
B|---------------------------------------------------------------------------|
G|----2--2-2-2-2-2-2---------------------------------------------------------|
D|----2--2-2-2-2-2-2--3--3-3-3-3-3-3--5--5-5-5-5-5-5--3-2-3-3----------------|
A|----0--0-0-0-0-0-0--3--3-3-3-3-3-3--5--5-5-5-5-5-5--3-2-3-3----------------|
D|--------------------3--3-3-3-3-3-3--5--5-5-5-5-5-5--3-2-3-3----------------|

Chorus 3/Solo/Outro-Guitar 2-Distortion-repeat 8 times end on B 15 
dont play G 16 the last time just listen to the song you'll get it
e|---------------------------------------------------------------------------|
B|----------------------------------------/17-15-----------------------------|
G|----17~------14-16-------14-17-------14--------16--------------------------|
D|-------14-17-------14-17-------14-17---------------------------------------|
A|---------------------------------------------------------------------------|
D|---------------------------------------------------------------------------|

Let me know what you guys think
Related for When I Get Home Youre So Dead tab