Song name
# A B C D E F G H I J K L M N O P Q R S T U V W X Y Z

Mayday Parade - When I Get Home Your So Dead tab

intro

    Am  Dm  Dm   Am
e--------1---1------------------|
B----1---3---3----1-------------|
G----2---2---2----2-------------|
D----2------------2-------------|repeat til electic comes in
A--0----------------------------|
D------3---0---0----------------|

e----------------------|
B--1---1---------------|
G--2---2---------------|play right befor electric comes
D--2---2---------------|
A--0---0---------------|
D----------------------|
the words are coming i feel terrible...


verse
repeat 2x
e----------------------------|----------|
B----------------------------|----------|
G--222222--------------------|----------|
D--222222--333333--00000000--|--00------| use this to trans.from verse to chorus
A--000000--333333--00000000--|--00------|
D----------333333--00000000--|--00------|

cause baby you were the first...


chorus


e-----------------------|--0-|
B-----------------------|--1-|
G--2--------------------|--2-|
D--2----3----5---22-33--|--2-|let ring out
A--0----3----5---22-33--|--0-|
D-------3----5---22-33--|----|

bridge


e---------|
B-1-------|
G-2-------|
D-2--3--0-|
A-o--3--0-|
D----3--0-|
interlude

e---------------|
B---------------|
G--2------------|
D--2--3--0------|
A--0--3--0------|
D-----3--0------|

this is pretty much all you need to know to play this song just listen to it to get stumming and muting


song order

intro
verse
chorus
verse
chorus
bridge
interlude
intro
chorus
Tap to rate this tab
 
# A B C D E F G H I J K L M N O P Q R S T U V W X Y Z