Song name
# A B C D E F G H I J K L M N O P Q R S T U V W X Y Z

Mayday Parade - Just Say Your Not Into It tab

Just Say Your Not Into It Tab by Mayday Parade :
drop d tuning

listen to cd for timing

intro 

guitar 1                         
e----|-----------------------|------------------------------------|
B----|-----------------------|------------------------------------|
G----|-----------------------|------------------------------------|
D--0-|-2\44444--2\44--0-00---|---77--22----000--000--000----------|
A--0-|-2\44444--2\44--0-00-x2|---77--22----000--000--000-x5-------|
D--0-|-2\44444--2\44--0-00---|---77--22----000--000--000----------|
                     pm


guitar 2
e---|---------------------------|------------------------------------|
B---|---------------------------|------------------------------------|
G---|--9\11-11-11-11-----7-77---|-----------13------13------9--------|
D---|--x\x--x--x--x------x-xx-x2|---77--22---x-x6----x--x6--x-x6-----|
A---|--7\9--9--9--9------5-55---|---77--22--12------11------7--------|
D---|---------------------------|---77--22---------------------------|
                    pm 

guitar 1 
e---------------------------------------|
B---------------------------------------|
G-----------------------------------9---|
D---000000--7---000000-9----000000------|
A---000000------000000------000000------|
D---000000------000000------000000------|
   PM.....     PM.....     PM.....


guitar 2


e--------------------------|
B--------------------------|
G--14-----13-----7---------|
D---x------x-----x---------|
A--12-----11-----9---------|
D--------------------------|


verse
guitar 1

e----------------------------|--------------------------------------------|
B----------------------------|--------------------------------------------|
G--9--9--6--9--9-------------|----9--9--9--9----9--9--9--9----6--6--6--6--|
D--7--6--7--7--9-------------|---7--7--7--7----6--6--6--6----7--7--7--7---|
A--0--7--5--0--7-------------|--0--0--0--0----7--7--7--7----5--5--5--5----|
D----------------------------|--------------------------------------------|

e----------------------9-------|
B------------------------------|
G----6--6--6--6--6---6---------|not too sure bout the last set of notes
D---7--7--7--7--7---6----------|
A--0--0--0--0--0---0-----------|
D------------------------------|

pre chorus 



e---------------------|
B---------------------|
G---------------------|
D--4-----0---2--------|
A--4-----0---2--------|
D--4-----0---2--------|

chorus

e----------------|-----------------------------------------------|
B----------------|-----------------------------------------------|
G----------------|------------------------------------9----------|
D---4--0--7--2---|---0----000000-7--000000-9---000000----2-4-7-0-|
A---4--0--7--2-x3|---0----000000----000000-----000000----2-4-7-0-|
D---4--0--7--2---|---0----000000----000000-----000000----2-4-7-0-|
                        pm.....   pm.....    pm.....

bridge

e------------------|
B------------------|
G-----9------------|
D--4--x-4--0-------|x2
A--4--7-4--0-------|
D--4----4--0-------|



FORGET EVERYTHING

e---------|
B---------|
G---------|
D--000----|
A--000----|
D--000----|


chorus

e----------------|-----------------------------------------------|
B----------------|-----------------------------------------------|
G----------------|------------------------------------9----------|
D---4--0--7--2---|---0----000000-7--000000-9---000000----2-4-7-0-|
A---4--0--7--2-x3|---0----000000----000000-----000000----2-4-7-0-|
D---4--0--7--2---|---0----000000----000000-----000000----2-4-7-0-|
                        pm.....   pm.....    pm.....
                    

interlude

e-------------------------------|----------
B-------------------------------|----------
G-------------------------------|----------
D--0--7--2--7--2--0--7--2-------|x2wo dist.
A--0--7--2--7--2--0--7--2-------|----------
E--0--7--2--7--2--0--7--2-------|----------


e-----------------------------|
B-----------------------------|
G-----------------------------|
D--0--7--2--7--2--0--7--2-----| with dist.
A--0--7--2--7--2--0--7--2-----|
D--0--7--2--7--2--0--7--2-----|


outro


e----|-----------------------|
B----|-----------------------|
G----|-----------------------|
D--0-|-2\44444--2\44--0-00---|
A--0-|-2\44444--2\44--0-00---|
D--0-|-2\44444--2\44--0-00---|                     
                     pm


i put the whole intro for the outro on the other on so here the outro
Tap to rate this tab
# A B C D E F G H I J K L M N O P Q R S T U V W X Y Z