Song name
# A B C D E F G H I J K L M N O P Q R S T U V W X Y Z

Mayday Parade - You Be The Anchor That Keeps My Feet On The Ground tab

Song: You be the anchor that keeps my feet on the ground I'll Be The Wind That Keep Your 
In The Clouds

Tuning: Standard or Dropped D

Intro/Verse 1
e|-------------------------------------------------------------------------|
B|-------------------------------------------------------------------------|
G|-------0-----0-----0------0----0-----0-----0-----0------0-----0-----0----|
D|-(3)-3---3-3---3-3---3/-4--4-4---4-4---4-4---4-4---4-4\---3-3---3-3---3-3|
A|----3-----3-----3------4----4-----4-----4-----4-----4------3-----3-----3-|
E|-------------------------------------------------------------------------|

e|-------------------------------------------------------------------------|
B|-------------------------------------------------------------------------|
G|-0-----0-----0-----0-----0-----0------0-----0-----0-----0-----0----------|
D|---3-3---3-3---3-3---3-3---3-3---3/-4---4-4---4-4---4-4---4-4---4-4------|
A|----3-----3-----3-----3-----3------4-----4-----4-----4-----4-----4-------|
E|-------------------------------------------------------------------------|

Chorus 1
e|--------------------------------------------------------|
B|---------------------0----------------------------------|
G|-0-0-0--0-0-0-0--0-0--0-2h3------0----0-0-0-0-0/5p4-----|
D|-3---3--3---3----3-3--3--------3-3--3-3-3---3-----------| (Repeat)
A|-3---3--3---3----3-3--3-------3--3-3-3-3---3-----------|
E|--------------------------------------------------------|

Verse 2
	First Part				2nd Part
e|-----------------------------------|-------------------------------------|
B|---0-------------------------------|-------------------------------------|
G|-----2h3h4h5-5-4-2---2h3h4h5-5-4-2-|-44444/66666-44444/66666\------------|
D|-3-----------------3---------------|-44444/66666-44444/66666\-44444------|
A|-3-----------------3---------------|-22222/44444-22222/44444\-44444------|
E|-----------------------------------|--------------------------22222------|
	Repeat a few times	then	play this til chorus

Chorus 2
e|--------------------------------------------------|
B|-----6-----6-----4--3--3-----6-----6-----6---8----|
G|----7-7---7-7---5-5--4--4---7-7---7-7---7-9-9-----|
D|---7---7-7---7\5---5--4--4-7---7-7---7-7---9------|Repeat
A|--0-----0-----0-----------0-----0-----0-----------|
E|--------------------------------------------------|

Bridge
e|-------------------------------------------------------------------------|
B|-------------------------------------------------------------------------|
G|-444444---------444444-------------4444444-------------------------------|
D|-444444-4444444-444444-444444/6666-4444444-4444444-3-------333333333333--|
A|-222222-4444444-222222-444444/6666-2222222-4444444-3-------333333333333--|
E|--------2222222--------222222/4444---------2222222-1-------111111111111--|
                                                     .                  .

e|-------------------------------------------------------------------------|
B|-------------------------------------------------------------------------|
G|-------------------------------------------------------------------------|
D|-44444444444/666666666-3/5/7/9-4444444444444-3/5/7/9-66666666-44444444---|
A|-44444444444/666666666-3/5/7/9-4444444444444-3/5/7/9-66666666-44444444---|
E|-22222222222/444444444-1/3/5/7-22222222222221/3/5/7-44444444-22222222---|

e|-------------------------------------------------------------------------|
B|-------------------------------------------------------------------------|
G|-------------------------------------------------------------------------|
D|-3/5/7/9-6666666-44444444-3/5/7/9----------------------------------------|
A|-3/5/7/9-6666666-44444444-3/5/7/9----------------------------------------|
E|-1/3/5/7-4444444-22222222-1/3/5/7----------------------------------------|

Final Chorus
e|-10------10-------|
B|---9-9-7---9-9-7--|
G|----8-8-----8-8---|
D|------------------|(Repeat til end)
A|------------------|
E|------------------|


| /  slide up
| \  slide down
| h  hammer-on
| p  pull-off
| ~  vibrato
| +  harmonic
| x  Mute note
| () Ghost Note

Haven't done the backup guitar as yet but will later. peace, enjoy this great song
Tap to rate this tab
# A B C D E F G H I J K L M N O P Q R S T U V W X Y Z