Song name
# A B C D E F G H I J K L M N O P Q R S T U V W X Y Z

Mayer Hawthorne - Just Aint Gonna Work Out tab

Record Label:
http://www.stonesthrow.com/mayerhawthorne
Personal:
http://www.myspace.com/mayerhawthorne

Artist: Mayer Hawthorne
Album: Just Ain't Gonna Work Out 7" (Stones Throw Records)
Song: Just Ain't Gonna Work Out
Tabbed by witmachine@yahoo.com

Mayer Hawthorne and The County's debut release. Hawthorne’s hanging-by-a-string 
falsetto and breakbeat production, great soulful track for 2009.

Staccato guitar chords and bouncing bass throughout.


INTRO
             E               E               F#m             F#m
G |-------------------------------------------------------------------|
D |-------------------------------------------------------------------|
A |--7---------------7---7-----------9---------------9---9------------|
E |----------------7---------------9-------------------------------11-|
                     But I gotta tell it like it is

             G#m             G#m
G |-------------------------------------------------------------------|
D |--------------------------------------------------------------9----|
A |--11--------------11--11----------12--------------12----11---------|
E |-------------------------------12----------------------------------|
   I don't wanna make this any harder than it is, so don't cry


   VERSE
             G#m             G#m             F#m             F#m
G |-------------------------------------------------------------------|
D |--------------------------------------------------7---6-------9----|
A |--7---------------7---7-----------9-----------------------9--------|
E |----------------7---------------9---------------9------------------|
     Don't wanna see your tears

             G#m             G#m             F#m             F#m
G |-------------------------------------------------------------------|
D |--------------------------------------------------7---6-------9----|
A |--7---------------7---7-----------9-----------------------9--------|
E |----------------7---------------9---------------9------------------|
                     Baby it'll be ok

             G#m             G#m             F#m             F#m
G |-------------------------------------------------------------------|
D |-------------------------------------------------------------------|
A |--7---------------7---7-----------9---------------9---9------------|
E |----------------7---------------9----------------------------------|
     Don't wanna see you crying darling

             G#m             G#m             F#m             F#m
G |-------------------------------------------------------------------|
D |--------------------------------------------------7---6------------|
A |--7---------------7---7-----------9-----------------------9---10---|
E |----------------7---------------9---------------9------------------|
                     No Way


BRIDGE
             G#m             G#m             F#m             F#m
G |-------------------------------------------------------------------|
D |-------------------------------------------------------------------|
A |--11--------------11--11----------9---------------9---9---------10-|
E |----------------11--------------9---------------9------------------|
     Just   don't    feel      the same

             G#m             G#m             F#m             F#m
G |-------------------------------------------------------------------|
D |-------------------------------------------------------------------|
A |--11--------------11--11----------9---------------9---9---------10-|
E |----------------11--------------9---------------9------------------|
    I know what you're about

             G#m             G#m             F#m             F#m
G |-------------------------------------------------------------------|
D |-------------------------------------------------------------------|
A |--11--------------11--11----------9---------------9---9---------11-|
E |----------------11--------------9---------------9------------------|
       And    I    guess that      I don't love you anymore

             F#m             F#m
G |-------------------------------------------------------------------|
D |----------------------------------------------------------9--------|
A |-12---------------------------------------------7/9----------------|
E |----------------------------------7-------9------------------------|
       And I'm sorry,     cuz it     just    ain't   working


CHORUS

 Guitar
e |-----------7------------------------------9------------------------|
B |-----------9------------------------------10-----------------------|
G |----------11------------------------------11-----------------------|
D |-------------------------------------------------------------------|
A |-------------------------------------------------------------------|
E |-------------------------------------------------------------------|
 Bass                                                                 |
G |-------------------------------------------------------------------|
D |-------------------------------------------------------------------|
A |--7---------------7---7-----------9---------------9---9------------|
E |----------------7---------------9-------------------------------11-|
     Out           Ahh..           I'm Sorry         Just Ain't Gonna

 Guitar
e |----------11------------------------------9------------------------|
B |----------12----------------------12\10---10-----------------------|
G |----------13------------------------------11-----------------------|
D |-------------------------------------------------------------------|
A |-------------------------------------------------------------------|
E |-------------------------------------------------------------------|
 Bass                                                                 |
G |-------------------------------------------------------------------|
D |--------------------------------------------------7---6-------9----|
A |--11--------------11--11----------9-----------------------9--------|
E |----------------11--------------9---------------9------------------|
     Work Out        This Ain't Gonna Work Out Girl

 Guitar
e |-----------7------------------------------9------------------------|
B |-----------9------------------------------10-----------------------|
G |----------11------------------------------11-----------------------|
D |-------------------------------------------------------------------|
A |-------------------------------------------------------------------|
E |-------------------------------------------------------------------|
 Bass                                                                 |
G |-------------------------------------------------------------------|
D |-------------------------------------------------------------------|
A |--7---------------7---7-----------9---------------9---9---------10-|
E |----------------7---------------9----------------------------------|
     Ahh..                         I'm Sorry         Just Ain't Gonna

 Guitar
e |----------11------------------------------12----------------------||
B |----------12------------------------------14----------------------||
G |----------13------------------------------14----------------------||
D |------------------------------------------------------------------||
A |------------------------------------------------------------------||
E |------------------------------------------------------------------||
 Bass                                                                ||
G |------------------------------------------------------------------||
D |------------------------------------------------------------------||
A |--11--------------11--11----------9--------------12---------------||
E |----------------11--------------9---------------------------------||
     Work Out        This Ain't Gonna Work Out Girl


Tap to rate this tab
# A B C D E F G H I J K L M N O P Q R S T U V W X Y Z