Song name
# A B C D E F G H I J K L M N O P Q R S T U V W X Y Z

Mayhem - Freezing Moon tab

This was one of the first solos I learned that I was actually proud of. :D

p = Pull off
h = Hammer on
/ = slide
* = Pinch Harmonic
b = bend


|-----------------------------------------------------10h12-13b-13b-------|
|--------------------------------------------10h12h13---------------------|
|------------------------------------9h11h12------------------------------|
|----------------------------9h10h12--------------------------------------|
|------------------7h9-10/12----------------------------------------------|
|-19\\\-----7h8h10--------------------------------------------------------|


|-------------------12-13b-----12----------------------------------------|
|-13-12b-----13-15----------------13-12b/13b------13-12------------------|
|---------------------------------------------------------14-12-11-------|
|------------------------------------------------------------------14-12-|
|------------------------------------------------------------------------|
|------------------------------------------------------------------------|


|-------------------------------------------------------15----14------13-15-|
|----------------------------------------------------12----12----13b--------|
|---------------------------------------------------------------------------|
|-14b----12-----------12-14-14-14-12----------------------------------------|
|-------------15-14b-----------------14b--15-15b----------------------------|
|---------------------------------------------------------------------------|


|-17-15-13------------15----14----------------------------------------------|
|----------17-15---12----12----12b/13b-13b-13b------12-13-15-13-12----------|
|------------------------------------------------------------------14-12-11-|
|---------------------------------------------------------------------------|
|---------------------------------------------------------------------------|
|---------------------------------------------------------------------------|


|----------------------------------------------------------------------------|
|----------------------------------------------------------------------------|
|-12-14-12-11----11-12/14b------11-12-14-12-11-------------------------------|
|-------------14-------------------------------15-14-12-14-15-14-12----------|
|-------------------------------------------------------------------15-14-12-|
|----------------------------------------------------------------------------|


|-----------------121212-15-12-14-131313-15-17-15-121212-15-12-14-12----------|
|--------------------------------------------------------------------13b------|
|-----------------------------------------------------------------------------|
|-----------------------------------------------------------------------------|
|-14b--15-15b-----------------------------------------------------------------|
|-----------------------------------------------------------------------------|


|-15-19-17-15------------17-20-19-17------------15-19-17-15------------------|
|-------------19-17b-----------------20-19-b----------------19-17-15---------|
|--------------------------------------------------------------------19--17--|
|----------------------------------------------------------------------------|
|----------------------------------------------------------------------------|
|----------------------------------------------------------------------------|


|--------------12b-12-12b------10-12-13b------13-12-10------------------------|
|------------------------------------------------------13b------10-12-13b-----|
|-16--17b---------------------------------------------------------------------|
|-----------------------------------------------------------------------------|
|-----------------------------------------------------------------------------|
|-----------------------------------------------------------------------------|


|----------------------------------------------------------------------------|
|-10h12h13p12p10-------------------------------------------------------------|
|----------------12p11p9h11h12p11p9------------------------------------------|
|-----------------------------------12p10p9h10h12p10h9-----------------------|
|------------------------------------------------------12p10p9h10h12p10p9----|
|-------------------------------------------------------------------------12-|


|------------------------------------------17h19h20p17-19h20-19h20-22p19-20-|
|------------------------17h19h20p17h19h20----------------------------------|
|------16h17h19p16h17h19----------------------------------------------------|
|---------------------------------------------------------------------------|
|---------------------------------------------------------------------------|
|-10p8----------------------------------------------------------------------|

|-22b----------------------------------|
|-----------------22b------------------|
|---------------------------22b--------|
|--------------------------------------|
|--------------------------------------|
|--------------------------------------|


Not sure if it's entirely correct, but that's how I play it, and it was tabbed. Of 
throw a little hammer-on and pull-offs here and there to make it sound better.

The original tab in it's entirety can be found at MetalTabs.com, it is tabbed  by Ema. :)
Tap to rate this tab
# A B C D E F G H I J K L M N O P Q R S T U V W X Y Z