Song name
# A B C D E F G H I J K L M N O P Q R S T U V W X Y Z

Mayhem - Ghoul tab

Help us improve GuitareTab! Take a short survey!
MAYHEM: Ghoul

Tabbed by Black Metaller (blackmetaller666@hotmail.com)

Tuning: D flat


Riff A
|----------------------------------|
|----------------------------------|
|----------------------------------|
|----------------------------------|
|-2-2-2-2-2-2-2-2-2-2-2-2-5-4-5-4--|
|-0-0-0-0-0-0-0-0-0-0-0-0-3-2-3-2--|

Riff A (cont.)
|----------------------------------|
|----------------------------------|
|----------------------------------|
|----------------------------------|
|-2-2-2-2-2-2-2-2-2-2-2-2-5-4-3-4--|
|-0-0-0-0-0-0-0-0-0-0-0-0-3-2-1-2--|

Riff B
|----------------------------------|
|----------------------------------|
|----------------------------------|
|----------------------------------|
|-2-2-2-2-2-2-2-2-2-2-2-2-3-3-3-3--|
|-0-0-0-0-0-0-0-0-0-0-0-0-1-1-1-1--|

Riff B (cont.)
|----------------------------------|
|----------------------------------|
|----------------------------------|
|----------------------------------|
|-2-2-2-2-2-2-2-2-2-2-2-2-3-4-5-7--|
|-0-0-0-0-0-0-0-0-0-0-0-0-1-2-3-5--|

Riff C
|-----------------------------------|
|-----------------------------------|
|-----------------------------------|
|-----------------------------------|
|-----------------------------------|
|-4444444444442222-4444444444442222-|

Riff C (cont.)
|-----------------------------------|
|-----------------------------------|
|-----------------------------------|
|-----------------------------------|
|-----------------------------------|
|-4444444444442222-4444444444442222-|

Riff C (cont.)
|---------------------------------------------------------|
|---------------------------------------------------------|
|---------------------------------------------------------|
|---------------------------------------------------------|
|-------------------------------------------------------2~|
|-6666666666666666-4444444444442222-4444444444442222----0~|

Riff D
|----------------------------------|
|----------------------------------|
|----------------------------------|
|----------------------------------|
|------------------667788----------|
|--5555555555555555----------------|

Riff E
|--------------|
|--------------|
|--------------|
|--------------|
|-2~-----------|
|-0~-----------|


Order:
Riff A x4
Riff B x4
Riff A x2
Riff B x4
Riff C x1
Riff A x4
Riff B x5
Riff D x12
Riff E x1
Related for Ghoul tab