Song name
# A B C D E F G H I J K L M N O P Q R S T U V W X Y Z

Mayhem - Carnage tab

MAYHEM: Carnage

Tabbed by Black Metaller (blackmetaller666@hotmail.com)

Tuning: C


Riff A
|-----------------------|
|-----------------------|
|-----------------------|
|-----------------------|
|----------5-4-5--------|
|-00000000-3-2-3--------|

Riff B
|-----------------------|
|-----------------------|
|-----------------------|
|-----------------------|
|----------2-3-2-3------|
|-11111111--------------|

Riff C
|-------|
|-------|
|-------|
|-------|
|--2~---|
|--0~---|

Riff D
|---------------------------------------|
|---------------------------------------|
|---------------------------------------|
|-----------------------------33333333--|
|--22222222-33333333-22222222-11111111--|
|--00000000-11111111-00000000-----------|

Note: Play this under solo

Riff E
|-------------------|
|-------------------|
|-------------------|
|-------------------|
|--2-2-2-2-2-2-2-2--|
|--0-0-0-0-0-0-0-0--|



Riff F
|----------------------|
|----------------------|
|----------------------|
|----------------------|
|------3---5---3-5-3---|
|--0-0-1-0-3-0-1-3-1---|

Riff G
|----------------------
|------------------------------------|
|--------------------------22223333--|
|--------------------------22223333--|
|--000011110000333300001111----------|
|------------------------------------|

Order:

Riff A x16
Riff B x4
Riff A x8
Riff B x4
Riff A x4
Riff C x1
Riff D x8
Riff C x1
Riff D x8
Riff A x6
Riff B x4
Riff A x8
Riff B x4
Riff A x4
Riff E x2
Riff F x22
Riff G x10
Riff C x1
Tap to rate this tab
# A B C D E F G H I J K L M N O P Q R S T U V W X Y Z