Song name
# A B C D E F G H I J K L M N O P Q R S T U V W X Y Z

Mayhem - Buried By Time And Dust tab

 MAYHEM: BURIED BY TIME AND DUST (version 1.0 October '97)

 transcribed by: Christoph Ziegler (GER)
                 Gernot Eller (AUT) 
                                    

  *...this note is a ten/eleven, not a one and a zero/two ones


	  RIFF1
 	||----------||
 	||----------||
 	||----------||
 	||-7--7--8--||
 	||-7--------||
 	||-5--------||

	  RIFF2
 	||----------||
 	||----------||
 	||----------||
 	||-8--8--9--||
 	||-8--------||
 	||-6--------||

	  RIFF3
	||------------||
	||------------||
	||-------*----||
	||-7--8--10-8-||
	||-7--8--10-8-||
	||-5--6--8--6-||

	  RIFF4
	||------------------||
	||------------------||
	||-9-*--------------||
	||---107-----5---3--||
	||-------7-3---1----||
	||------------------||

	  RIFF5
	||---------------------------------||
	||---------------------------------||
	||---------------------------------||
	||---2-3-2---3-4-3---2-3-2---5---3-||
	||-0-------1-------0-------3---1---||
	||---------------------------------||

	  RIFF6
	||----------||
	||----------||
	||-------*--||
	||-7-9-7-10-||
	||-7---7----||
	||-5---5----||

	  RIFF7
	||----------||
 	||----------||
 	||-*--*--*--||
	||-10-10-11-||
 	||-10-------||
 	||-8--------||

	  RIFF8
	||----------||
	||----------||
	||----------||
	||-4--4-5---||
	||-4--------||
	||-2--------||

	  RIFF9
	||----------||
	||----------||
	||----------||
	||-5--5--5--||
	||-5--5--5--||
	||-3--3--3--||

	  RIFF10
	||----------------||
	||----------------||
	||----------------||
	||-4-4-4-5-5-5-4--||
	||-4-4-4-5-5-5-4--||
	||-2-2-2-3-3-3-2--||


 Song-Structure:
 ŻŻŻŻŻŻŻŻŻŻŻŻŻŻŻ
 Riff1	4x
 Riff2	4x
 Riff1	4x
 Riff2	4x
 Riff1	4x
 Riff2	4x
 Riff3	8x
 Riff1	4x
 Riff2	4x
 Riff1	4x
 Riff2	4x
 Riff3	8x
 Riff6	12x
 Riff4	4x
 Riff5	2x
 Riff4	4x
 Riff5	2x
 Riff1	4x
 Riff7	4x
 Riff1	4x
 Riff8	4x
 Riff9	1x
 Riff1	4x
 Riff2	4x
 Riff1	4x
 Riff8	4x
 Riff9	1x
 Riff8	4x
 Riff9	1x
 Riff8	1x
 Riff10	1x
Tap to rate this tab
# A B C D E F G H I J K L M N O P Q R S T U V W X Y Z