Song name
# A B C D E F G H I J K L M N O P Q R S T U V W X Y Z

Mayhem - Cursed In Eternity tab

Band:  mayhem

Album: de mysteriis dom sathanas

Song:  cursed in eternity

Copyright (c)  deathlike silence productions - 1994

Version 1.1 - 07/01/2007

Transcribed By: inrwtl & FRMC

Email:          inrwtl@alice.it


.  - palm mute           /  - slide up to
\  - slide down to       ~  - vibrato
h  - hammer on           b  - Bend
p  - pull off            Suffixes for bend
t  - tap                 f  - full bend    h - half bend
ph - pinched harmonic    q  - quarter bend t - tap bend
*  - see comment         ^  - Hold bend    r release bend
x  - Stuccatto           ~  - vibrato bend
,  - slight palm mute    () - ghost note, sustained note
"  - tremolo note        <> - Trill

Tuning E A D G B E


Riff 1 - Guitar 1

|-------------------------------------------------------------------|
|---------------5-5-----------------6-6---------------------5-5-----|
|---------------5-5-----------------6-6---------------------5-5-----|
|---------------7-7-----------------8-8---------------------7-7-----|
|---------------7-7-----------------8-8---------------------7-7-----|
|-5-5-5-5-5-5-5-5-5-5-5-6-6-6-6-6-6-6-6-6-6-0-0-5-5-5-5-5-5-5-5-5-5-|


|-------------------------------------------------------------------|
|---------------4-4-------------------5-5---------------6-6---------|
|---------------4-4-------------------5-5---------------6-6---------|
|---------------6-6-------------------7-7---------------8-8---------|
|---------------6-6-------------------7-7---------------8-8-10-10-10|
|-4-4-4-4-4-4-4-4-4-0-0-5-5-5-5-5-5-5-5-5-6-6-6-6-6-6-6-6-6-8--8--8-|


|-------------------------------------------------------------------|
|-----------------5-5-8--8--8--8--6-6-6-6---------------------------|
|-----------------5-5-8--8--8--8--6-6-6-6---------------------------|
|-----------------7-7-10-10-10-10-8-8-8-8---------------------------|
|-10--------------7-7-10-10-10-10-8-8-8-8---------------------------|
|-8-5-5-5-5-5-5-5-5-5-8--8--8--8--6-6-6-6---------------------------|


Riff 1 - Guitar 1 - Fill 1

|-------------------------------------------------------5\----------|
|-----------------5-5-8--8--8--8--6-6-6-6---------------5\----------|
|-----------------5-5-8--8--8--8--6-6-6-6---------------5\----------|
|-----------------7-7-10-10-10-10-8-8-8-8---------------------------|
|-10--------------7-7-10-10-10-10-8-8-8-8---------------------------|
|-8-5-5-5-5-5-5-5-5-5-8--8--8--8--6-6-6-6---------------------------|


Riff 1 - Guitar 2

|-------------------------------------------------------------------|
|---------------5-5-----------------------------------------5-5-----|
|---------------5-5-----------------------------------------5-5-----|
|---------------7-7-----------------------------------------7-7-----|
|---------------7-7-----8-8-8-8-8-8-8-8-8-8-----------------7-7-----|
|-5-5-5-5-5-5-5-5-5-5-5---------------------0-0-5-5-5-5-5-5-5-5-5-5-|


|-------------------------------------------------------------------|
|-------------------------------------5-5---------------------------|
|-------------------------------------5-5---------------------------|
|-------------------------------------7-7---------------------------|
|-6-6-6-6-6-6-6-6-6-------------------7-7-8-8-8-8-8-8-8-8-8-10-10-10|
|-------------------0-0-5-5-5-5-5-5-5-5-5-------------------8--8--8-|


|-------------------------------------------------------------------|
|-----------------5-5-8--8--8--8--6-6-6-6---------------------------|
|-----------------5-5-8--8--8--8--6-6-6-6---------------------------|
|-----------------7-7-10-10-10-10-8-8-8-8---------------------------|
|-10--------------7-7-10-10-10-10-8-8-8-8---------------------------|
|-8-5-5-5-5-5-5-5-5-5-8--8--8--8--6-6-6-6---------------------------|


Riff 1 - Guitar 2 - Fill 1

|-------------------------------------------------------5\----------|
|-----------------5-5-8--8--8--8--6-6-6-6---------------5\----------|
|-----------------5-5-8--8--8--8--6-6-6-6---------------5\----------|
|-----------------7-7-10-10-10-10-8-8-8-8---------------------------|
|-10--------------7-7-10-10-10-10-8-8-8-8---------------------------|
|-8-5-5-5-5-5-5-5-5-5-8--8--8--8--6-6-6-6---------------------------|


Riff 2

|-------------------------------------------------------------------|
|-------------------------------------------------------------------|
|-------------------------------------------------------------------|
|-------------------------------------------------------------------|
|-6-6-6-6-6-6-6-6-6-6-6-6-6-6-6-6-6-6-3-3-3-3-2-2-2-2-2-2-2-2-2-2-2-|
|-4-4-4-4-4-4-4-4-4-4-4-4-4-4-4-4-4-4-1-1-1-1-0-0-0-0-0-0-0-0-0-0-0-|


Riff 3

|-------------------------------------------------------------------|
|------4-4-4-4---------4-4-4-4-----------0-0-0-0-0-0-0--------------|
|------4-4-4-4---------4-4-4-4-----------0-0-0-0-0-2-2--------------|
|------6-6-6-6---------6-6-6-6-----------2-2-2-2-2-2-2--------------|
|--6-6-6-6-6-6-6-6-6-6-6-6-6-6-3-3-3-2-2-2-2-2-2-2-2-2-2-2-2-2-7-7-7|
|--4-4-4-4-4-4-4-4-4-4-4-4-4-4-1-1-1-0-0-0-0-0-0-0-0-0-0-0-0-0-5-5-5|


Riff 4

|-------------------------------------------------------------------|
|-------------------------------------------------------------------|
|-------------------------------------------------------------------|
|-------------------------------------------------------------------|
|-6-----6--5--6-----7--7--7--6--------------------------------------|
|-4--0--4--3--4--0--5--5--5--4--------------------------------------|


Riff 5 - Guitar 2 (Under Riff 4)

|-------------------------------------------------------------------|
|-------------------------------------------------------------------|
|-------------------------8-8-8-8---------8-8---------------------9-|
|-----------------6-6-6-6---------9-9-9-9-----9-9-------------------|
|---------6-6-6-6---------------------------------0-0-0-0-7-7-7-7---|
|-4-4-4-4-----------------------------------------------------------|


|-------------------------------------------------------------------|
|-------------------------------------------------------------------|
|-9-9-9-------------------------------------------------------------|
|-------------------------------------------------------------------|
|-------------------------------------------------------------------|
|-------------------------------------------------------------------|


Riff 6

|-------------------------------------------------------------------|
|-------------------------------------------------------------------|
|-4-4-4-4---4-4-4-4-3-3-3-3-4-4-4-4---5-5-5-5-----------------------|
|-6-6-6-6---6-6-6-6-5-5-5-5-6-6-6-6---7-7-7-7-----------------------|
|-6-6-6-6---6-6-6-6-5-5-5-5-6-6-6-6---7-7-7-7-----------------------|
|-4-4-4-4-0-4-4-4-4-3-3-3-3-4-4-4-4-0-5-5-5-5-----------------------|


Riff 6 - Fill 1

|-------------------------------------------------------4\----------|
|-------------------------------------------------------4\----------|
|-4-4-4-4---4-4-4-4-3-3-3-3-4-4-4-4---5-5-5-5-4---------4\----------|
|-6-6-6-6---6-6-6-6-5-5-5-5-6-6-6-6---7-7-7-7-6---------------------|
|-6-6-6-6---6-6-6-6-5-5-5-5-6-6-6-6---7-7-7-7-6---------------------|
|-4-4-4-4-0-4-4-4-4-3-3-3-3-4-4-4-4-0-5-5-5-5-4---------------------|


Riff 7

|-------------------------------------------------------------------|
|-------------------------------------------------------------------|
|-------------------------------------------------------------------|
|-------------------------------------------------------------------|
|-8-8-8-8-8-8-8-8-8-8-8-8-8-8-8-5-5-5-4-4-4-4-4-4-4-4-4-4-4-4-3-3-3-|
|-6-6-6-6-6-6-6-6-6-6-6-6-6-6-6-3-3-3-2-2-2-2-2-2-2-2-2-2-2-2-1-1-1-|


END



Tap to rate this tab
# A B C D E F G H I J K L M N O P Q R S T U V W X Y Z