Song name
# A B C D E F G H I J K L M N O P Q R S T U V W X Y Z

Mayhem - Chainsaw Gutsfuck tab

Album: Deathcrush
100% correct :)
tabbed by: toni.r

E||-------|-------|------------------------|-------|-----------------------|
B||-------|-------|------------------------|-------|-----------------------|
G||-------|-------|------------------------|-------|-----------------------|
D||-------|-------|----------------4---4---|-------|----------------4---4--|
A||-------|-------|----------------4---4---|-------|----------------4---4--|
E||-------|-------|----------------2---2---|-------|----------------2---2--|
     
|----------------------|---------------------|----------------------|
|----------------------|---------------------|----------------------|
|o---------------------|---------------------|---------------------o| 4x
|o--2--5------4--------|--2--5------4--------|--2--5------4--------o|
|---2--5------4--------|--2--5------4--------|--2--5------4---------|
|---0--3------2--------|--0--3------2--------|--0--3------2---------|
          
|---------------------------------|---------------------------------|
|---------------------------------|---------------------------------|
|o--------------------------------|--------------------------------o| 4x
|o--3----3--3----3--3S--4--4S--5--|--3----3--3----3--3S--4--4S--5--o|
|---3----3--3----3--3S--4--4S--5--|--3----3--3----3--3S--4--4S--5---|
|---1----1--1----1--1S--2--2S--3--|--1----1--1----1--1S--2--2S--3---|

|---------------------------------|---------------------------------|
|---------------------------------|---------------------------------|
|o------------------6S--5---------|------------------6S--5---------o|
|o--2----2--3----2--6S--5--6S--5--|--2----2--3----2--6S--5--6S--5--o|   2x
|---2----2--3----2--4S--3--6S--5--|--2----2--3----2--4S--3--6S--5---|
|---0----0--1----0---------4S--3--|--0----0--1----0---------4S--3---|

|---------------------------------|---------------------------------|
|---------------------------------|---------------------------------|
|o--------------------------------|--------------------------------o| 2x
|o--3----3--3----3--3S--4--4S--5--|--3----3--3----3--3S--4--4S--5--o|
|---3----3--3----3--3S--4--4S--5--|--3----3--3----3--3S--4--4S--5---|
|---1----1--1----1--1S--2--2S--3--|--1----1--1----1--1S--2--2S--3---|

|---------------------------------|---------------------------------|
|---------------------------------|---------------------------------|
|o------------------6S--5---------|------------------6S--5---------o|
|o--2----2--3----2--6S--5--6S--5--|--2----2--3----2--6S--5--6S--5--o|   2x
|---2----2--3----2--4S--3--6S--5--|--2----2--3----2--4S--3--6S--5---|
|---0----0--1----0---------4S--3--|--0----0--1----0---------4S--3---|

|---------------------------------|---------------------------------|
|---------------------------------|---------------------------------|
|o--------------------------------|--------------------------------o| 2x
|o--3----3--3----3--3S--4--4S--5--|--3----3--3----3--3S--4--4S--5--o|
|---3----3--3----3--3S--4--4S--5--|--3----3--3----3--3S--4--4S--5---|
|---1----1--1----1--1S--2--2S--3--|--1----1--1----1--1S--2--2S--3---|

|---------------------------------|---------------------------------|
|---------------------------------|---------------------------------|
|o------------------6S--5---------|------------------6S--5---------o|
|o--2----2--3----2--6S--5--6S--5--|--2----2--3----2--6S--5--6S--5--o|   2x
|---2----2--3----2--4S--3--6S--5--|--2----2--3----2--4S--3--6S--5---|
|---0----0--1----0---------4S--3--|--0----0--1----0---------4S--3---|
  
------------------------|------------------------|
------------------------|------------------------|
------------------------|------------------------|
--6---------------------|--6---------------------|
--6---------------------|--6---------------------|
--4---------------------|--4---------------------|


 
--------------------------------|--------------------------------|
--------------------------------|--------------------------------|
------------------6S--5---------|------------------6S--5---------|
------------------6S--5--6S--5--|--2----2--3----2--6S--5--6S--5--|
------------------4S--3--6S--5--|--2----2--3----2--4S--3--6S--5--|
-------------------------4S--3--|--0----0--1----0---------4S--3--|

|---------------------------------|---------------------------------|
|---------------------------------|---------------------------------|
|o------------------6S--5---------|------------------6S--5---------o|
|o--2----2--3----2--6S--5--6S--5--|--2----2--3----2--6S--5--6S--5--o|   2x
|---2----2--3----2--4S--3--6S--5--|--2----2--3----2--4S--3--6S--5---|
|---0----0--1----0---------4S--3--|--0----0--1----0---------4S--3---|

|---------------------------------|---------------------------------|
|---------------------------------|---------------------------------|
|o--------------------------------|--------------------------------o| 2x
|o--3----3--3----3--3S--4--4S--5--|--3----3--3----3--3S--4--4S--5--o|
|---3----3--3----3--3S--4--4S--5--|--3----3--3----3--3S--4--4S--5---|
|---1----1--1----1--1S--2--2S--3--|--1----1--1----1--1S--2--2S--3---|

|---------------------------------|---------------------------------|
|---------------------------------|---------------------------------|
|o------------------6S--5---------|------------------6S--5---------o|
|o--2----2--3----2--6S--5--6S--5--|--2----2--3----2--6S--5--6S--5--o|   2x
|---2----2--3----2--4S--3--6S--5--|--2----2--3----2--4S--3--6S--5---|
|---0----0--1----0---------4S--3--|--0----0--1----0---------4S--3---|
                                  
---------------------------------|-------------------|
---------------------------------|-------------------|
---------------------------------|-------------------|
--2h------------5----------------|-------------------|
--2h------------5----------------|-------------------|
--0h------------3----------------|-------------------|

|----------------------------------|-----------------------------------|
|--8-8-8-8-8-8-8-8-8-8-8-8-8-8-8-8-|--8-8-8-8-8-8-8-8-8-8-8-8-8-8-8-8--|
|--9-9-9-9-9-9-9-9-9-9-9-9-9-9-9-9-|--9-9-9-9-9-9-9-9-9-9-9-9-9-9-9-9-o| 3x
|--9-9-9-9-9-9-9-9-9-9-9-9-9-9-9-9-|--9-9-9-9-9-9-9-9-9-9-9-9-9-9-9-9-o|
|--7-7-7-7-7-7-7-7-7-7-7-7-7-7-7-7-|--7-7-7-7-7-7-7-7-7-7-7-7-7-7-7-7--|
|----------------------------------|-----------------------------------|

|--------------------------------------|-------------------------------------|
|--------------------------------------|-------------------------------------|
|o--9----9--10----9--13S--12-----------|--9----9--10----9--13S--12-----------|
|o--9----9--10----9--11S--10--13S--12--|--9----9--10----9--11S--10--13S--12--|
|---7----7---8----7-----------11S--10--|--7----7---8----7-----------11S--10--|
|--------------------------------------|-------------------------------------|

|---------------------------------|---------------------------------|
|---------------------------------|---------------------------------|
|o--------------------------------|--------------------------------o| 2x
|o--3----3--3----3--3S--4--4S--5--|--3----3--3----3--3S--4--4S--5--o|
|---3----3--3----3--3S--4--4S--5--|--3----3--3----3--3S--4--4S--5---|
|---1----1--1----1--1S--2--2S--3--|--1----1--1----1--1S--2--2S--3---|

|---------------------------------|---------------------------------|
|---------------------------------|---------------------------------|
|o------------------6S--5---------|------------------6S--5---------o|
|o--2----2--3----2--6S--5--6S--5--|--2----2--3----2--6S--5--6S--5--o|   2x
|---2----2--3----2--4S--3--6S--5--|--2----2--3----2--4S--3--6S--5---|
|---0----0--1----0---------4S--3--|--0----0--1----0---------4S--3---|
    
------------------------||
------------------------||
--0----------------x----||
--2----------------x----||
--2----------------x----||
--0----------------x----||
Tap to rate this tab
# A B C D E F G H I J K L M N O P Q R S T U V W X Y Z