Song name
# A B C D E F G H I J K L M N O P Q R S T U V W X Y Z

Mayhem - Manheirm tab

Band:  Mayhem
Album: Deathcrush
Song:  Manheim (Weird)

Tunning: E A D G B E

E||------|------|------|--7------------15----|----14------13--------|
B||------|------|------|---------------------|----------------------|
G||------|------|------|---------------------|----------------------|
D||------|------|------|---------------------|----------------------|
A||------|------|------|---------------------|----------------------|
E||------|------|------|---------------------|----------------------|



--12------11------10----|----------16------15--|------14----------12--|
------------------------|----------------------|----------------------|
------------------------|----------------------|----------------------|
------------------------|----------------------|----------------------|
------------------------|----------------------|----------------------|
------------------------|----------------------|----------------------|



------11------10------|------17------16------|--15----------15------|
----------------------|----------------------|----------------------|
----------------------|----------------------|----------------------|
----------------------|----------------------|----------------------|
----------------------|----------------------|----------------------|
----------------------|----------------------|----------------------|



--14------13----------|--12------11------10----|------------------|
----------------------|------------------------|------------------|
----------------------|------------------------|------------------|
----------------------|------------------------|------------------|
----------------------|------------------------|------------------|
----------------------|------------------------|------------------|



--------------------|--------------------|-------------------|----------||
--7----------6------|--5------4----------|--4----------------|----------||
--------------------|--------------------|-------------------|----------||
--------------------|--------------------|-------------------|----------||
--------------------|--------------------|-------------------|----------||
--------------------|--------------------|-------------------|----------||


END
Tap to rate this tab
 
# A B C D E F G H I J K L M N O P Q R S T U V W X Y Z