Song name
# A B C D E F G H I J K L M N O P Q R S T U V W X Y Z

Mayhem - Let The Mayhem Begins tab

Intro: 
first vers (*4)
E----------------------------------------------------------------------)
B----------------------------------------------------------------------)
G--------0-----0-----0-----0-----0---------0------0-----0-----0--------) 
D------2---2-----2-----2-----2-----------3----3-----3-----3-----3------)
A---2--------2-----2-----2-----2-------3--------3-----3-----3----3--3--)
E-0----------------------------------0---------------------------------)

Again the dark has come...like all the empty nights
the smells of burnig dow...put the end of lights
the wind of deep inside...the rain of cloudy sky
the scream of scared wild...make all the painful die

second vers (*4)
E--------------------------------------------------------------------)
B-----0-----0----0----0------0----------0----0----0---0--------------)
G----0--0-----0----0----0--------------0--0----0----0---0------------)
D---2-----2-----2----2----2-----------3-----3----3----3---3--2-------)
A--------------------------------------------------------------------)
E-0---------------------------------0--------------------------------)

And i'm alive again...alone under the rain
my head is full of pain...not like the other man
and my disteny is vague...i have nothing to take
and my life will soon be break...like no others

enjoy the tab
lieaw@hotmail.com
Tap to rate this tab
# A B C D E F G H I J K L M N O P Q R S T U V W X Y Z