Song name
# A B C D E F G H I J K L M N O P Q R S T U V W X Y Z

Mayhem - Symbols Of Bloodswords tab

Help us improve GuitareTab! Take a short survey!
.  - palm mute           /  - slide up to
\  - slide down to       ~  - vibrato
h  - hammer on           b  - Bend
p  - pull off            Suffixes for bend
t  - tap                 f  - full bend    h - half bend
ph - pinched harmonic    q  - quarter bend t - tap bend
*  - see comment         ^  - Hold bend    r release bend
x  - Stuccatto           ~  - vibrato bend
,  - slight palm mute    () - ghost note, sustained note
"  - tremolo note        <> - Trill

Tuning E A D G B E

Intro:

Guitar 1:
|------------------------------------------------------------------------|
|------------------------------------------------------------------------|
|--------------------------(8)---------------7-------7---8----7--6-------|
|---------------------------7----------------7---------------------(4)---|
|-4--------5----------------6----------------5---------------------------|
|-2--------3-------------------------------------------------------------|


Guitar 2:
|-------------------------------------------------------------------------|
|-------------------------------------------------------------------------|
|-------------------------------------------------------------------------|
|-------------------------------------------------------------------------|
|----------5---------------------------------------------------------4----|
|----------3---------------------------------------------------------2----|



Guitar 1 & 2 :
|---------------------------------------------------------------------------|
|---------------------------------------------------------------------------|
|------------------(8)---------------7--------------------------------------|
|-------------------7----------------7-----------------4----4-4----4-4-4----|
|--5----------------6----------------5-----------------2----2-2----2-2-2----|
|--3------------------------------------------------------------------------|
   *("All The Stars In The North Are Dead Now...")


|---------------|
|---------------|
|---------------|
|---------------|
|-5------6------|
|-3------4------|



Both Guitars: Notes Between () are played only for Guitar 1
|----------------------------------------------------------------|
|----------------------------------------------------------------|
|------------------(8)---------------7------(7)--(8)--(7)-(6)----|
|-------------------7----------------7-----------------------(4)-|
|--5----------------6----------------5---------------------------|
|--3-------------------------------------------------------------|

|---------------------------------------------------------------------------|
|---------------------------------------------------------------------------|
|------------------(8)---------------7--------------------------------------|
|-------------------7----------------7-----------------4----4-4----4-4-4----|
|--5----------------6----------------5-----------------2----2-2----2-2-2----|
|--3------------------------------------------------------------------------|

|---------------|
|---------------|
|---------------|
|---------------|
|-5------6------|
|-3------4------|

|----------------------------------------------------------------|
|----------------------------------------------------------------|
|------------------(8)---------------7------(7)--(8)--(7)-(6)----|
|-------------------7----------------7-----------------------(4)-|
|--5----------------6----------------5---------------------------|
|--3-------------------------------------------------------------|

|---------------------------------------------------------------------------|
|---------------------------------------------------------------------------|
|------------------(8)---------------7--------------------------------------|
|-------------------7----------------7-----------------4----4-4----4-4-4----|
|--5----------------6----------------5-----------------2----2-2----2-2-2----|
|--3------------------------------------------------------------------------|

|---------------|
|---------------|
|---------------|
|---------------|
|-5------6------|
|-3------4------|

|---------------------------------------------|
|---------------------------------------------|
|---------------------------------------------|
|------------7-----4---------------3/4--------|
|-5----------5-----6----5----------1/2--------|
|-3---------------------3------------"--------|
  "          "     "    "

|---------------------------------------------|
|---------------------------------------------|
|---------------------------------------------|
|----------5/6--------------------------------|
|-5--------3/4----------5--------5---4--4--4--|
|-3---------------------3--------3---2--2--2--|
  "          "          "            .  .  .

|----------------------------------------------------------------|
|----------------------------------------------------------------|
|------------------(8)---------------7------(7)--(8)--(7)-(6)----|
|-------------------7----------------7-----------------------(4)-|
|--5----------------6----------------5---------------------------|
|--3-------------------------------------------------------------|

|---------------------------------------------------------------------------|
|---------------------------------------------------------------------------|
|------------------(8)---------------7--------------------------------------|
|-------------------7----------------7-----------------4----4-4----4-4-4----|
|--5----------------6----------------5-----------------2----2-2----2-2-2----|
|--3------------------------------------------------------------------------|

|-------------------------------------|
|-------------------------------------|
|-------------------------------------|
|-------------------------------------|
|-5------6------5--------5---4--4--4--| Now Maniac Sings Alone
|-3------4------3--------3---2--2--2--|
                             .  .  .



|-------------------------------------------------------|
|-------------------------------------------------------|
|-------------------------------------------------------|
|------------------------------------6----------6-------|
|------3----------4-------6----------5----------5-------|
|-1---------1--2-----4---------4--5-----4-4-4-------3---|
  "    "    "  "  "  "    "    "  "     . . "       "

Here timming is bad, but notes are correct, listen to the song
to improve the timming (Drumm's are a bit high on this part)
|---------------------------------------------------------------------------|
|---------------------------------------------------------------------------|
|---------------------------------------------------------------------------|
|-------------------------------------------------------3-----2-----3-------|
|----------------5--5--------------------------------1-----1--------2-------|
|-3--333333-3-3--3--3--3-2----2--1--3-----2--1--2-----------------1---------|
                         "    .  .  "     .  .  "    "  "  "  "   . Let Ring



Guitar 1:
|-------------------------------------------------------------------|
|-------------------------------------------------------------------|
|-------------------------------------------------------------------|
|-2------------------3----------2-----------------1-----------------|
|-------------------------------------------------------------------|
|------------------------2--3-------------------------4---0---------|
  "                  "   .  .   "

Guitar 2:
|--------------------------------------------------------------------|
|--------------------------------------------------------------------|
|--------------------------------------------------------------------|
|-2-----------------------------------------------1------------------|
|-2------------------------------------------------------------------|
|-0---------------------------------------------------4---0----------|



Both Guitars
|---------------------------------------------------------------------------|
|---------------------------------------------------------------------------|
|---------------------------------------------------------------------------|
|---------2---------3--------2--------2---------------------2---1-----------|
|-------------------------------------------------------2-------------------|x2
|-0---1-0---------------2--3-------0-----------0---3----------------4---0---|
  "   " "   "       "   "  "  "    "  "        "   "    "   "   "   "   "

|-------------|
|-------------|
|-------------|
|-3-----------|
|-----2-------|
|---------0---|
  "   "   "

|-----------------------------------------------------------------|
|-----------------------------------------------------------------|
|-----------------------------------------------------------------|
|---------2---------3--------2------------------------------------|
|---------------------------------------------2---3---7---6---6---|
|-0---1-0---------------2--3------------------0---1---5---4---6---|
  "   " "   "       "   "  "  "

|----------------------------------------------------------|
|----------------------------------------------------------|
|----------------------------------------------------------|
|----------------------------------------------------------|
|-2--------6-2--------2-3-3-3-3-3-3-3-2-----6--2--7--2--6--|x5
|-0--------6-0--------0-1-1-1-1-1-1-1-0-----6--0--5--4--6--|


|------------------------------------------------------------------------|
|------------------------------------------------------------------------|
|------------------------------------------------------------------------|
|---------2-------3--------2--------2---------------------2---1----------|
|-----------------------------------------------------2------------------|x2
|-0-------------------2--3-------0-----------0---3---------------4---0---|
  "       "       "   "  "  "    "  "        "   "    "   "   "  "   "


Guitar 1 (guitar 2 does G5 and F#5, just listen to do it, i think is better
i tab this without guitar 2 to easier view)
|-------------------------------------------------------|
|-----------4-----------------4----------------4--------|
|--------7-----7-----------7-----7----------7-----7-----|
|-----5-----------5-----5-----------5-----5----------5--|
|-------------------------------------------------------|
|--3-----------------3-----------------3----------------|

|----------------------|
|----------6-----------|
|-------9-----9--------|
|----7-----------7-----|
|-9-----------------9--|
|----------------------|


|-------------------------------------------------------|
|-----------4-----------------4----------------4--------|
|--------7-----7-----------7-----7----------7-----7-----|
|-----5-----------5-----5-----------5-----5----------5--|
|-------------------------------------------------------|
|--3-----------------3-----------------3----------------|

|-------------------|
|-------------------|
|----4-----4-----4--|
|-2-----2-----2-----|
|-------------------|  Repeat a couple of times and fade out...
|-------------------|


END

Related for Symbols Of Bloodswords tab