Guitaretab - guitar tabs
Song name
# A B C D E F G H I J K L M N O P Q R S T U V W X Y Z

Maylene And The Sons Of Disaster - The Old Iron Hills tab

The Old Iron Hills 
Maylene & the Sons of Disaster
III
Tuning-Drop D

I think this should be pretty close. Please comment if you like it or if there are mistakes.

Intro X2
e|--------------------------------------------------------------------------------------------|
B|--------------------------------------------------------------------------------------------|
G|--------------------------------------------------------------------------------------------|
D|------------------3h5-3^--------------------3h5--3^------------------3h5-3^-77777777-5555-3|
A|-------------5----3h5-3^---------------5----3h5-----------------5----3h5-3^-77777777-5555-3|
D|-00-000-0h5h6--6p5-3h5-3^--00-000-0h5h6--6p5-3h5-----00-000-0h5h6-6p5-3h5-3^-77777777-5555-3|


Verse X2

Lead
e|-------------------------------------------------------------------------------------------|
B|-------------------------------------------------------------------------------------------|
G|-------------------------------------------------------------------------------------------|
D|-0-5p3p0------------------------5p3p0------------------------5p3p0-------------------------|
A|-0------5p3p0------------------------5p3p0------------------------5p3p0--------------------|
D|-0------------5p3p0-0000-3^-0-0-----------5p3p0--0000-5^-0-0-----------5p3p0--0000-3^-0----|

Rhythm
e|-------------------------------------------------------------------------------------------|
B|-------------------------------------------------------------------------------------------|
G|-------------------------------------------------------------------------------------------|
D|-0------------------0000-------------------------0000-----------------------0000-----------|
A|-0------------------0000-------------------------0000-----------------------0000-----------|
D|-0------------------0000-3^-0-0------------------0000-5^-0-0----------------0000-3^-0------|

Both parts
e|--------------------|
B|--------------------|
G|--------------------|
D|-77777777-5555-3----|
A|-77777777-5555-3----|
D|-77777777-5555-3----|


Chorus X2
[ Tab from: http://www.guitaretab.com/m/maylene-and-the-sons-of-disaster/190632.html ]
Lead (not 100%)
e|-------------------------------------------------------------------|
B|----------------------------------------------8b10-6^---8b10-6^----|
G|----5-7----5-7~-----5-7----5-7~----5-7----5-7---------7~--------7~-|
D|-5-7----5-7-----5-7-----5-7-----5-7----5-7-------------------------|
A|-------------------------------------------------------------------|
D|-------------------------------------------------------------------|

Rhythm
e|-------------------------------------------------------------------------|
B|-------------------------------------------------------------------------|
G|-------------------------------------------------------------------------|
D|-7777777777777777-5555555555555555-5555555555555555-5-3^-0---------------|
A|-5555555555555555-3333333333333333-5555555555555555-5-3^-0--------3------|
D|-----------------------------------5555555555555555-5-3^-0-----3-5-5-3-0-|

Bridge X4
e|--------------------------|
B|--------------------------|
G|--------------------------|
D|--------------------------|
A|--------5-------3---------|
D|-0-0h5h6-6p5-3-5-5-0-3^-0-|


Breakdown
e|-------------------------------------------------------------------------------------------|
B|-------------------------------------------------------------------------------------------|
G|-------------------------------------------------------------------------------------------|
D|-0-0-3---------------6-5-3---0-0-3---------------5-3^--0-0-3---------------5-3^------------|
A|-0-0--5-3-0-3h5-5--3-6-5-3---0-0--5-3-0-3h5-5--3-5-3^--0-0--5-3-0-3h5-5--3-5-3^------3-----|
D|-0-0-----------------6-5-3---0-0-----------------5-3^--0-0-----------------5-3^-0-3-5-5-3-0|

e|--------------|
B|--------------|
G|--------------|
D|-----3--------|
A|--3-5-5-3-5---|
D|-5------------|

Repeat Chorus

End Verse
e|----------------------------------------------------------------------------------------|
B|----------------------------------------------------------------------------------------|
G|----------------------------------------------------------------------------------------|
D|-0-5p3p0------------0000-----5p3p0------------0000----5p3p0-----------------------0-----|
A|-0------5p3p0-------0000----------5p3p0-------0000---------5p3p0--------5-3-3-----0-----|
D|-0------------5p3p0-0000-3^------------5p3p0--0000-5^-----------5p3p0-0----5-5-3^-0-----|



Legend-

^ - Slight bend
H  Hammer-on
P  Pull-off
~ - Vibrato
Related for The Old Iron Hills tab