Song name
# A B C D E F G H I J K L M N O P Q R S T U V W X Y Z

Maylene And The Sons Of Disaster - Oh Lonely Grave tab

Very cool song on the new album "III"
I love this intro, so I figured out and figured I'd throw it up on here for anyone 
that wanted to learn a nice little riff.

Legend for this tab:

b = Bend
p = Pull off

Enjoy
-Seth

e|-----------------------------------|
B|-----------------------------------|
G|-----------------------------------|
D|---------0-3p2p0-----0-3b-0---x3---|
A|-------0---------0-2-------0-------|
D|--3bp0-----------------------------|

On the 4th time, play this

e|-----------------------------------|
B|-----------------------------------|
G|-----------------------------------|
D|---------0-3p2p0-------------------|
A|-------0---------0---3-5-----------|
D|--3bp0---------------3-5-----------|

During the part with vocals, instead of the chords there is a small lick that is 
added that I believe goes like this:

e|-----------------------------------|
B|-----------------------------------|
G|--2-0-----0------------------------|
D|------3-2---3--0-------------------|
A|-----------------3-----------------|
D|-------------------3/5-------------|
Tap to rate this tab
# A B C D E F G H I J K L M N O P Q R S T U V W X Y Z