Song name
# A B C D E F G H I J K L M N O P Q R S T U V W X Y Z

Maylene And The Sons Of Disaster - No Good Son tab

Tuning: drop d
intro and verse
e|----------------------------------------------------------------|
B|----------------------------------------------------------------|
G|----------------------------------------------------------------|
D|-3-5-8-5-0-3-5-3-0-3-5-10-8-------------------------------------|
A|-3-5-8-5-0-3-5-3-0-3-5-10-8-------------------------------------|
E|-3-5-8-5-0-3-5-3-0-3-5-10-8-------------------------------------|

chores chordes 
e|--------------------------------------------------------------|
B|--------------------------------------------------------------|
G|--------------------------------------------------------------|
D|3-5-5-1-------------------------------------------------------|
A|3-5-3-3-------------------------------------------------------|
E|3-5-----------------------------------------------------------|
Tap to rate this tab
 
# A B C D E F G H I J K L M N O P Q R S T U V W X Y Z