Song name
# A B C D E F G H I J K L M N O P Q R S T U V W X Y Z

Maylene And The Sons Of Disaster - Just A Shock tab

Well when I saw the laughable version already on the site I decided to sit down and try
figure it out myself. It's surprisingly easy but there's one tricky part that I hope
explained fully.

Enjoy!
-Seth

So that tricky part? It's hard to explain. There may be a term for this but I don't know
it is. I consider it a (don't laugh) 2 string sweep. The notes from the 5th fret of the
string to the open on the E are struck in quick succession but not strummed. Play around 
it a bit it'll come to you.
e|------0-3p0-------0-3p0-------0-3p0--5p0-0-3p0-0----|
B|-0h3h5-----5-0h3h5-----5-0h3h5-----5----------------|
G|----------------------------------------------------|
D|----------------------------------------------------|
A|----------------------------------------------------|
D|----------------------------------------------------|

e|------0-3p0-------0-3p0-------0-3p0--3p0------------|
B|-0h3h5-----5-0h3h5-----5-0h3h5-----5----5p0-3p0-----|
G|------------------------------------------------2p0-|
D|----------------------------------------------------|
A|----------------------------------------------------|
D|----------------------------------------------------|

Rinse and repeat.
Tap to rate this tab
 
# A B C D E F G H I J K L M N O P Q R S T U V W X Y Z