Song name
# A B C D E F G H I J K L M N O P Q R S T U V W X Y Z

Maylene And The Sons Of Disaster - Come For You tab

|---------|---------|---------|---------|
|---------|---------|---------|---------|
|---------|---0-----|---------|---------|
|-----3---|-----3-2-|-----3---|-----3---|
|---5---5-|-3-------|---3---3-|-------3-|
|-0-------|---------|-3-------|---------|


|---------|---------|---------|---------|
|---------|---------|---------|---------|
|---------|---0-----|---------|---------|
|-----3---|-----3-2-|-----3---|-----5---|
|---5---5-|-3-------|---3---3-|---5---5-|
|-0-------|---------|-3-------|-5-------|


|---------|---------|---------|---------|
|---------|---------|---------|---------|
|---------|---0-----|---------|-----3---|
|-----3---|-----3-2-|-----3---|---3---3-|
|---5---5-|-3-------|---3---3-|-1-------|
|-0-------|---------|-3-------|---------|


|---------|---------|---------|---------|
|---------|---------|---------|---------|
|---------|---0-----|---------|---------|
|-----3---|-----3-2-|-----3---|-----3---|
|---5---5-|-3-------|---3---3-|-------3-|
|-0-------|---------|-3-------|---------|


|---------|---------|---------|---------|
|---------|---------|---------|---------|
|---------|---------|-3-3-3-3-|-3-3-3-3-|
|-0-0-0-0-|-0-0-0-0-|-3-3-3-3-|-3-3-3-3-|
|-0-0-0-0-|-0-0-0-0-|-1-1-1-1-|-1-1-1-1-|
|-0-0-0-0-|-0-0-0-0-|---------|---------|


|---------|---------|---------|---------|
|---------|---------|---------|---------|
|---------|---------|-5-5-5-5-|-5-5-5-5-|
|-3-3-3-3-|-3-3-3-3-|-5-5-5-5-|-5-5-5-5-|
|-3-3-3-3-|-3-3-3-3-|-5-5-5-5-|-5-5-5-5-|
|-3-3-3-3-|-3-3-3-3-|---------|---------|


-Variation
|---------|---------|---------|---------|
|---------|---------|---------|---------|
|---------|---------|-3-3-3-3-|-3-3-3-3-|
|-0-0-0-0-|-0-0-0-0-|-3-3-3-3-|-3-3-3-3-|
|-0-0-0-0-|-0-0-0-0-|-1-1-1-1-|-1-1-1-1-|
|-0-0-0-0-|-0-0-0-0-|---------|---------|


|---------|---------|---------|---------|
|---------|---------|---------|---------|
|---------|---------|---------|---------|
|-3-3-3-3-|-3-3-3-3-|-2-------|---------|
|-3-3-3-3-|-3-3-3-3-|-2-------|---------|
|-3-3-3-3-|-3-3-3-3-|-2-------|---------|
Tap to rate this tab
# A B C D E F G H I J K L M N O P Q R S T U V W X Y Z