Song name
# A B C D E F G H I J K L M N O P Q R S T U V W X Y Z

Maylene And The Sons Of Disaster - Caution Dangerous Curves Ahead tab

Maylene and the Sons of Disaster!

This is the song as I play it, however there are three guitarists in the band and I
have no idea which one of them plays what. So i'm just tabbing out what I learned
off of the CD.

INTRO:

E|--------------------------------------------------------------|
B|--------------------------------------------------------------|
G|----------------5---------------------------------------------|
D|6-5--0-3--0-3-5-5---0-0---0-0---0-0---0-----------------------|
A|6-5--0-3--0-3-5-3---0-0---0-0---0-0---0-----------------------|
D|6-5--0-3--0-3-5-----0-0---0-0---0-0---0-----------------------|
four times!

THE ONES THAT CARRY NEVER BACK DOWN...
E|--------------------------------------------------------------|
B|--------------------------------------------------------------|
G|--------------------------------------------------------------|
D|0-0-3-0---------0-0-3-0---------0-0-3-0---------0-------------|
A|0-0-3-0---------0-0-3-0---------0-0-3-0---------0-------------|
D|0-0-3-0---------0-0-3-0---------0-0-3-0---------0-------------|


FEEL YOUR INSIDES AS THEY GROW WEAK!
E|--------------------------/REPEAT-THIS-THREE-TIMES,-THEN-THE--|
B|--------------------------|FOURTH-TIME-LEAVE-OUT--------------|
G|--------------------------V-------THIS PART--v----------------|
D|0-0-3-0----0-3-0-6-6-5-0--0-3-0----0-3-0-6-6-5-0--------------|
A|0-0-3-0----0-3-0-6-6-5-0--0-3-0----0-3-0-6-6-5-0--------------|
D|0-0-3-0----0-3-0-6-6-5-0--0-3-0----0-3-0-6-6-5-0--------------|


E|--------------------------------------------------------------|
B|--------------------------------------------------------------|
G|--------------------------------------------------------------|
D|X-X-X-X-X-X-X-X-X-X-X-X-0--0--0--0--0--0----------------------|
A|X-X-X-X-X-X-X-X-X-X-X-X-0--0--0--0--0--0----------------------|
D|X-X-X-X-X-X-X-X-X-X-X-X-0--0--0--0--0--0----------------------|


YOUR TRUTH, THOSE SECRETS YOU REGRET..
E|--------------------------3--------3-1-----------------------------------|
B|----------------------------6-6/0-----3-1--------------------------------|
G|-------------------3h5p3-----------------3-2-3-2-2h3p2-------------------|
D|0--3-2-3/5-3--3p2-------------------------------------3-2-3/5--3-2-3-2-0-|
A|-------------------------------------------------------------------------|
D|-------------------------------------------------------------------------|

FOR ALL WHO BELIEVE TO SEE..
E|-----------------------------------------------------------------|
B|-----------------------------------------------------------------|
G|-----------------------------------------------------------------|
D|0-0-0-0-0-0-0-0-0-0----------------------------------------------|
A|0-0-0-0-0-0-0-0-0-0----------------------------------------------|
D|0-0-0-0-0-0-0-0-0-0----------------------------------------------|
times four!

COME A LITTLE CLOSER
E|-----------------------------------------------------------------|
B|-----------------------------------------------------------------|
G|-----------------------------------------------------------------|
D|7-7-10-7--7-10-7--7-7--------------------------------------------|
A|7-7-10-7--7-10-7--7-7--5-8-5-------------------------------------|
D|7-7-10-7--7-10-7--7-7--------------------------------------------|
times eight!

           WAS IT WORTH THE WHILE..
E|-----------------------------------------------------------------|
B|-----------------------------------------------------------------|
G|109-7-5-|-2--2-4-5-----------4-------------|2--------------------|
D|x-x-x-x-|-0--0-2-3-----------2--3-2---2----|0--------------------|
A|8-7-5-3-|-0--0-2-3--5--3h5p3-2------5---5-3|0--------------------|
D|--------|repeat ^four times then end on this^--------------------|

AND YOU THINK HURTING ME REALLY HELPED?
E|----------------------------------------------------9b10---------|
B|-----------------------------------------------------------------|
G|-----------------------------------------------------------------|
D|00003000000000000000000000000000000000000------------------------|
A|00003000000000000000000000000000000000000TIMES FOUR--------------|
D|00003000000000000000000000000000000000000------------------------|

WHEN YOU PANIC TONIGHT, JUST THINK OF ME
E|--------------------------------------------------------------|
B|--------------------------------------------------------------|
G|THIS FOUR TIMES, THEN...-|-THIS FOUR TIMES!-------------------|
D|000030000---000--6-6-5-0-|000030000000000000003000-6-6-5-0----|
A|000030000---000--6-6-5-0-|000030000000000000003000-6-6-5-0----|
D|000030000---000--6-6-5-0-|000030000000000000003000-6-6-5-0----|

end.

Sorry if this is pretty sketchy, I made it out the best way it made sense to me.
Tap to rate this tab
 
# A B C D E F G H I J K L M N O P Q R S T U V W X Y Z