Song name
# A B C D E F G H I J K L M N O P Q R S T U V W X Y Z

Maylene And The Sons Of Disaster - The Road Home To Panther Creek tab

i know they have two or three guitars, but to start, i'm making it for one. i'll try and 
the solo later. you can match up the m_ parts together (if i ever add more)

h=hammer on
p=pull off
()=pinch harmonic
*=harmonic
_b_=bend _ to _
b half/full=bend half/full etc.
[_]=start on note THEN do what it says in there


Intro
e---------    ------------------------------------------|
B---------    ------------------------------------------|
G---------    ------------------------------------------| x2
D--0-0-0-0 x1 ---8-7--5--3----------8-7--5--3-----------|
A--0-0-0-0     -------------3/5/3p0------------3/5-(5)--|
D--0-0-0-0    -00-0-00-00-0-------00-0-00-00-0----------|
pm            .. . .. .. .        .. . .. .. .

Verse

e-------------------------------------------|
B-------------------------------------------|
G-------------------------------------------|
D----8-7--5--3-----------8-7--5--3----------| x2
A--00-0-00-00-0~3/5/3p000-0-00-00-0~3/5-(5)-|
D--00-0-00-00-0~-------00-0-00-00-0~--------|
pm .. . .. .. .        .. . .. .. .

e----------------------|
B----------------------|
G----------------------|
D--8-75-3-7-53p0-2320--|
A----------------------|
D----------------------|
pm               ....


e----------------------|
B----------------------|
G----------------------|
D--8-75-3-7-53p0-81012~|
A----------------------|
D----------------------|
pm               . . .



e----------------------|
B----------------------|
G----------------------|
D--8-75-3-7-53p0-2320--|
A----------------------|
D----------------------|
pm               ....


e---------------------|
B---------------------|
G---------------------|
D--8-75-3-7-53p0-7810~|
A---------------------|
D---------------------|
pm               .. .


e------------------------------------   ---------|
B------------------------------------   ---------|
G------------------------------------   ---------|
D------------------------------------ x8------0~-|
A--5-5-5p3p0---------0000000000000000   --653-0~-|
D------------5-5-5p3~0000000000000000   --653-0~-|
pm                   ................


e------------------------------------------------------------------------|
B------------------------------------------------------------------------|
G---------------------------------------------------------------(7)------|
D----------------30~------------6530~---------------30~-------5----6530~-|
A--0000000000000030~0000000000006530~-0000000000000030~0000000000006530~-|
D--0000000000000030~0000000000006530~-0000000000000030~0000000000006530~-|
pm ..............   .............     ..............   ............


e---------------------------------|
B---------------------------------|
G---------------------------------| x4
D-----------------------------0~--|
A-------------------------653-0~--|
D--0-0-6p06p0-0-5p0-0-5p0-653-0~--|
pm                        ...


e--------------------|
B--------------------|
G--------------------|
D--------------------| x2
A--------------------|
D--5b6-5-3[b half]p0-|


e---------------|
B---------------|
G---------------|
D--6-5-3-0~ x18-|
A--6-5-3-0~-----|
D--6-5-3-0~-----|
Tap to rate this tab
# A B C D E F G H I J K L M N O P Q R S T U V W X Y Z