Song name
# A B C D E F G H I J K L M N O P Q R S T U V W X Y Z

Maylene And The Sons Of Disaster - Bang The Witch Is Dead tab

Maylene And The Sons Of Disaster
Bang! The Witch Is Dead
Drop D

*-this means pinch the sting when you pick it with your right hand and
bend it with you left hand.
E|----------------------------------------------------------------||
B|----------------------------------------------------------------||
G|----------------------------------------------------------------||
D|----------------------------------------------------------------||
A|0-3-5-0-6-5-3-0-3-5-0-3-5-5*--0-3-5-0-6-5-3-0-3-5-0-3-5---------||
D|0-3-5-0-6-5-3-0-3-5-0-3-5-----0-3-5-0-6-5-3-0-3-5-0-3-5-5*------||
                        
E|----------------------------------------------------------------||
B|----------------------------------------------------------------||
G|----------------------------------------------------------------||
D|----------------------------------------------------------------||
A|0-3-5-0-6-5-3-0-3-5-0-3-5-5*--0-3-5-0-6-5-3-0-6-5-3-0-6-5-3-0---||
D|0-3-5-0-6-5-3-0-3-5-0-3-5-----0-3-5-0-6-5-3-0-6-5-3-0-6-5-3-0---||
  ^^^repeat these last two lines^^^
(0:26)                                     last time end on 
E|-------------------------------------|--------------------------||
B|-------------------------------------|--------------------------||
G|-------------------------------------|--------------------------||
D|00000-----00000-----00000-------6-5-3|-4x-----0~~---------------||
A|00000-333-00000-555-00000-333---6-5-3|--------0~~---------------||
D|00000-----00000-----00000-------6-5-3|--------0~~---------------||
  .....     .....     .....
(0:54)  bend each pull-off to get the right sound
E|----------------------------------------------------------------||
B|----------------------------------------------------------------||
G|----------------------------------------------------------------||
D|00--------------------00--------------------00------------------||
A|00--------------------00--------------------00------------------||
D|00-3p0-0-5p0-0-6-5-0--00-3p0-0-5p0-0-6-5-0--00-3p0-0-5p0-0-6-5-0||
  ..                    ..                    .. 
E|--------------------------------||
B|--------------------------------||
G|--------------------------------||
D|00------------------------------||repeat these two lines 4x
A|00---0-5-0---5*-----------------||
D|00--6-----6-5-------------------||
  ..  .. . .. .
(1:27)                                      end on
E|-------------------------------------|--------------------------||
B|-------------------------------------|--------------------------||
G|-------------------------------------|--------------------------||
D|0-----5h6p5-----3-5-----3h5p3-----1-0|-6x---0~------------------||
A|0-----5h6p5-----3-5-----3h5p3-----1-0|------0~------------------||
D|0-(0)-5h6p5-(5)-3-5-(5)-3h5p3-(3)-1-0|------0~------------------||

E|----------------------------------------------------------------||
B|----------------------------------------------------------------||
G|----------------------------------------------------------------||
D|0~----00--------0~----00--------0~----00--------0~----00--------||
A|0~----00--------0~----00--------0~----00--------0~----00--------||
D|0~----00--------0~----00--------0~----00--------0~----00--------||
        ..              ..              ..              ..
(2:25) bend pull-offs again
E|----------------------------------------------------------------||
B|----------------------------------------------------------------||
G|----------------------------------------------------------------||
D|00---------00---------00---------00-----------------------------||8x
A|00---------00---------00---------00-----3*----------------------||
D|00-3p0-0---00-3p0-0---00-3p0-0---00---33------------------------||
  ..         ..         ..         ..
E|----------------------------------------------------------------||
B|----------------------------------------------------------------||
G|----------------------------------------------------------------||
D|00-30-0---00-30-0---00-30-0---00--------------------------------||3x
A|00-30-0---00-30-0---00-30-0---00-----3*-------------------------||
D|00-30-0---00-30-0---00-30-0---00---33---------------------------||

E|----------------------------------------------------------------||
B|----------------------------------------------------------------||
G|----------------------------------------------------------------||
D|00-30-0---00-30-0-------------------0~--------------------------||
A|00-30-0---00-30-0--/5-3-0h3-33-3h5--0~--------------------------||
D|00-30-0---00-30-0-----------33-3h5--0~--------------------------||
End
Tap to rate this tab
# A B C D E F G H I J K L M N O P Q R S T U V W X Y Z