Song name
# A B C D E F G H I J K L M N O P Q R S T U V W X Y Z

Maylene And The Sons Of Disaster - Hell On The Rise tab

Maylene and the Sons of Disaster
Hell on the Rise
Tabbed By Kiwi


Alabama local bands kick so much ass..

neways so i was listing to Maylene and playing along with it on guitar and decided to
what i got,because i see this tab
that hurricane andy has and its somewhat simular to the way i play it..but ive been to
shows and seen stuff and

learned it somewhat the way they play it but it sounds much the same with me playing
i decided to change this guys

tab and correct it where he was wrong...if you think im wrong then Email me at
haveyougonemad2787@hotmail.com


i tabbed some of the strums out..but listen to the song to get the strums and pinchs
easy to hear


E|------------------------------------------------------------------|
B|------------------------------------------------------------------|
G|------------------------------------------------------------------|8x
D|---7-10-7----7*---------------------------------------------------|
A|----------10-------5-3--------------------------------------------|
D|-----------------------7-5-7*-------------------------------------|
    *every now and then pinch
E|------------------------------------------------------------------|
B|------------------------------------------------------------------|
G|------------------------------------------------------------------|
D|---7~----------3~-------------------------------------------------|
A|---7~----------3~-------------------------------------------------|
D|---7~----------3~-------------------------------------------------|


Ambience Foretold and Now This Stone Is Caving From Within
E|------------------------------------------------------------------|
B|------------------------------------------------------------------|
G|------------2-2--5-5---3-----2------------------------------------|4x
D|--3-3--5-5--2-2--5-5---3-7x--2-7x---------------------------------|
A|--3-3--5-5--0-0--3-3---1-----0------------------------------------|
D|--3-3--5-5--------------------------------------------------------|

E|------------------------------------------------------------------|
B|------------------------------------------------------------------|
G|------------------------------------------------------------------|
D|------------0-0-------3-5--0-0-0------0-0--------3-5--------------|
A|0-0-3-5-----0-0-3-4-5-3-5--0-0-0-3-5--0-0-3-4-5--3-5--------------|
D|------------0-0-------3-5--0-0-0------0-0--------3-5--------------|
              . .            . . .      . .


E|------------------------------------------------------------------|
B|------------------------------------------------------------------|
G|------------------------------------------------------------------|
D|0-0-0---------0-0-------3-5--0-0-0------0-0--------3-5-0----------|
A|0-0-0-3-5-----0-0-3-4-5-3-5--0-0-0-3-5--0-0-3-4-5--3-5-0----------|
D|0-0-0---------0-0-------3-5--0-0-0------0-0--------3-5-0----------|
  . . .         . .            . . .      . .

Whores With Halos
E|------------------------------------------------------------------|
B|------------------------------------------------------------------|
G|------------------------------------------------------------------|4x
D|0-3-5-3-5-6-5-3-0-3-----------------------------------------------|
A|0-3-5-3-5-6-5-3-0-3-----------------------------------------------|
D|0-3-5-3-5-6-5-3-0-3-----------------------------------------------|

Give us that Potion
E|------------------------------------------------------------------------|
B|------------------------------------------------------------------------|
G|------------------------------------------------------------------------|
D|0-0----------------0-0-3p0h3----------0-0----------------0-0--543-------|4x
A|0-0-3p0h3----------0-0----------------0-0-3p0h3----------0-0-----543----|
D|0-0--------0h3p0-0-0-0--------0h3p0-0-0-0--------0h3p0-0-0-0--------543-|
  . .                . .                . .                . .

Run To The Hills The Souths Gonna Take You
E|------------------------------------------------------------------|
B|------------------------------------------------------------------|
G|------------------------------------------------------------------|4x
D|------------------------------------------------------------------|
A|------------------------------------------------------------------|
D|0--0h3p0-0-0--0h3p0-0-0--0h3p0-0-0--0-5h6p5-----------------------|


Whores With Halos
E|------------------------------------------------------------------|
B|------------------------------------------------------------------|
G|------------------------------------------------------------------|4x
D|0-3-5-3-5-6-5-3-0-3-----------------------------------------------|
A|0-3-5-3-5-6-5-3-0-3-----------------------------------------------|
D|0-3-5-3-5-6-5-3-0-3-----------------------------------------------|

then it slows down a bit...
E|------------------------------------------------------------------|
B|------------------------------------------------------------------|7x
G|------------------------------------------------------------------|
D|0-0--------0-0--------3-5-----------------------------------------|
A|0-0-3p0-5--0-0-3-4-5--3-5-----------------------------------------|
D|0-0--------0-0--------3-5-----------------------------------------|
  . .        . .

e|---------------------------------|
B|---------------------------------|4x
G|---------------------------------|
D|0-0---------0-0-----------3-5-0--|
A|0-0-3-3-5-5-0-0-3-3-4-5-5-3-5-0--|
D|0-0---------0-0-----------3-5-0--|
                           [-------|end on this the 4th Time

IF YOU LIVE IN ALABAMA HELP SUPPORT MAYLENE


Kiwi
Tap to rate this tab
# A B C D E F G H I J K L M N O P Q R S T U V W X Y Z