Song name
# A B C D E F G H I J K L M N O P Q R S T U V W X Y Z

Maylene And The Sons Of Disaster - Gusty Like The Wind tab

Help us improve GuitareTab! Take a short survey!
This is my first tab so hopefully it works out ok

Tabbed by:fuzzy<>lumpkins(adam)
Email:Fuzzylumpkins248@yahoo.com

Tuning:drop D
verse
e|--------------------------------------------------------------------------|
B|--------------------------------------------------------------------------|
G|--------------------------------------------------------------------------|
D|--------------------------------------------------------------------------|
A|----5-----5-7-8ph-----------------5----5-875------------------------------|
E|0000--0000-0-0-----X3---------0000-0000-0---------------------------------|
pm....  .... . .                .... .... ....
e|--------------------------------------------------------------------------|
B|--------------------------------------------------------------------------|
G|--------------------------------------------------------------------------|
D|----3----3--5--7ph---------3----3-----------------------------------------|
A|----------------------------------875-------------------------------------|
E|0000-0000--0--0----X3--0000-0000-0----------------------------------------|
  .... ....  .  .        .... .... . ...


 pre-chorus
e|--------------------------------------------------------------------------|
B|--------------------------------------------------------------------------|
G|--------------------------------------------------------------------------|
D|7----3----5----0----------------------------------------------------------|
A|7----3----5----0----------------------------------------------------------|
E|7----3----5----0--000 000-------------------------------------------------|
                    ... ...
e|--------------------------------------------------------------------------|
B|--------------------------------------------------------------------------|
G|9----5----7----2----------------------------------------------------------|
D|x----x----x----x----------------------------------------------------------|
A|7----3----5----0----------------------------------------------------------|
E|------------------000 000-------------------------------------------------|
                    ... ...

chorus
e|--------------------------------------------------------------------------|
B|--------------------------------------------------------------------------|
G|5--------7----9------12---------------------------------------------------|
D|x--------x----x-------x---------------------------------------------------|
A|3--------5----7------10---------------------------------------------------|
E|--X16----------X8-------X8------------------------------------------------|

verse 2(1:31-1:45)
e|--------------------------------------------------------------------------|
B|--------------------------------------------------------------------------|
G|--------------------------------------------------------------------------|
D|0-0-3-00------------------------------------------------------------------|
A|0-0-3-00--------5ph-------------------------------------------------------|
E|0-0-3-00--X4--------------------------------------------------------------|

        (1:46-2:12)
e|---------------------------------------------------------------------------|
B|---------------------------------------------------------------------------|
G|---------------------------------------------------------------------------|
D|00-----------00------------------------------------------------------------|
A|00-----------00------------------------------------------------------------|
E|00-3-0-0-----00--9-8-7-----------------------------------------------------|

         (2:13-2:19)
e|---------------------------------------------------------------------------|
B|---------------------------------------------------------------------------|
G|---------------------------------------------------------------------------|
D|---------------------------------------------------------------------------|
A|33333030-------------------------------------------------------------------|
E|33333030-------------------------------------------------------------------|
  ........

beside the bridge this is pretty much it
hope it helps

  .  palm mute
  ph pinch harmonic
| /  slide up
| \  slide down
| h  hammer-on
| p  pull-off
| ~  vibrato
| +  harmonic
| x  Mute note
===============================================================================
Related for Gusty Like The Wind tab