Song name
# A B C D E F G H I J K L M N O P Q R S T U V W X Y Z

Maylene And The Sons Of Disaster - Dry The River tab

I saw some of the other tabs for Dry the River here and they were awesome but I made a
alterations. I'm not trying to steal their tabs or anything I'm just trying to show you
the way I play it. So all respect to the other guys. you might even like theirs better 
you should check theirs out too.

Intro
E------------------------------------------|
B------------------------------------------|
G--15-16-15-16-15-16-15-16-15-16-12-12-12--|
D------------------------------------------|
A------------------------------------------|
D------------------------------------------|

E----------121512--------------------|
B------1215------1512------12--------|
G--1215--------------151215--1512----|
D--------------------------------14--|
A------------------------------------|
D------------------------------------|

E-------------------------------|
B-------------------------------|
G-12~--12~--12~--12~------------|
D----14---14---14---1414141414--|
A-------------------------------|
D-------------------------------|
                                 >2x
E-------------------------------|
B-------------------------------|
G-12~--12~--12141414141412------|
D----14---14--------------14----|
A-------------------------------|
D-------------------------------|

First Verse:

E-----------------------------|
B-----------------------------|
G-----------------------------|
D--525252525252-777777---5-2--|
A--525252525252-777777---5-2--|
D--525252525252-777777---5-2--|
                               > 2x


E------------------------------------|
B------------------------------------|
G------------------------------------|
D--------------------2-5-2-0--0-2-5-5|
A--------------------2-5-2-0--0-2-5-5|
D--2-5-2-0--0-2-5-5--2-5-2-0--0-2-5-5|
Play the first part twice and the second part four times.

Chorus:
E--------------------------------------------------------------------|
B--------------------------------------------------------------------|
G------------2222----------------------------------------------------|
D--5555-0000-2222-2222-5555-0000-------------------------------------|
A--5555-0000-0000-2222-5555-0000-------------------------------------|
D--5555-0000------2222-5555-0000-------5-2-5-2-52--5-2-5-2-52--------|

Then play this four times

E-------------------|
B-------------------|
G-------------------|
D-----2-------------|
A-------5-2--2--2---|
D--2-5-----5--5--5--|

Second Verse:

E------------------------------|
B------------------------------|
G------------------------------|
D--22222--55---22222----99-7-5-|
A--22222--55---22222----99-7-5-|
D--22222--55---22222----99-7-5-|
Play this twice


E----------------------------------------------------------|
B----------------------------------------------------------|
G----------------------------------------------------------|
D---2-2--5-5--7-7--8---------------------------------------|
A---2-2--5-5--7-7--8---567--567--567-7-7-7-----------------|
D---2-2--5-5--7-7--8---------------------------------------|

Then play the chorus again and then go back into the intro:

E-----------------------------------------|
B-----------------------------------------|
G-15-16-15-16-15-16-15-16-15-16-12-12-12--|
D-----------------------------------------|
A-----------------------------------------|
D-----------------------------------------|

E----------121512--------------------|
B------1215------1512------12--------|
G--1215--------------151215--1512----|
D--------------------------------14--|
A------------------------------------|
D------------------------------------|

E-------------------------------|
B-------------------------------|
G-12~--12~--12~--12~------------|
D----14---14---14---1414141414--|
A-------------------------------|
D-------------------------------|

E-------------------------------|
B-------------------------------|
G-12~--12~--12141414141412------|
D----14---14--------------14----|
A-------------------------------|
D-------------------------------|
Third Verse:
E--------------------------------------|
B--------------------------------------|
G--------------------------------------|
D-55555-88-55555--------------------52-|
A-55555-88-55555-567--567--567--567-52-|
D-55555-88-55555--------------------52-|


Then play the chorus again

Outro
E---------------------------------------|
B---------------------------------------|
G---------------------------------------|
D---------------------------------------|
A--5-6-7--------------------------------|
D---------------------------------------|
Tap to rate this tab
# A B C D E F G H I J K L M N O P Q R S T U V W X Y Z