Song name
# A B C D E F G H I J K L M N O P Q R S T U V W X Y Z

Maylene And The Sons Of Disaster - Never Stop Haunting tab

I couldn't find any more tabs for this song that don't only have the intro. I'm not sure 
the accuracy.

*  = pinch harmonic

   x
pm - = palm mute

Intro
|-------------------------------------------|
|-------------------------------------------|
|-------------------------------------------|
|-------------------------------------------|
|-0--2-----0--2h3p2p0--0--2-----0--2h3p2p0--|
|-0----3-2-0-----------0----3-2-0-----------|
    pm - -                  - -
|-------------------------------------------|
|-------------------------------------------|
|-------------------------------------------|
|-------------------------------------------|
|-0--2-----0--2h3p2p0--0--2------------5*---|
|-0----3-2-0-----------0----3-2------0------|

repeat a couple o times then i think do this

|-------------------------------------------|
|-------------------------------------------|
|-------------------------------------------|
|-------------------------------------------|
|-0--2-----0--2h3p2p0--0--2-----0--2h3p2-2--|
|-0----3-2-0-----------0----3-2-0--------2--|
    pm - -                  - -

|-------------------------------------------|
|-------------------------------------------|
|-------------------------------------------|
|-------------------------------------------|
|-1------6-0-5-0-8-0-6-0-5-0-5-6-5----------|
|-1----0------------------------------------|
  /\
do some rythm with the d# power chord, then do all hammer ons an pull offs on that a-string


|-------------------------------------------|
|-------------------------------------------|
|-----------------------8-8-8-8-------------|
|----------7----8-7-------------------------|
|------6-8----------8-6-6-6-6-6-------------|
|-0-----------------------------------------|

not sure bout this part. u can figure it out. im just 2 lazy to play the song rite now. 
doin this from ear an memory. enjoy.
Tap to rate this tab
# A B C D E F G H I J K L M N O P Q R S T U V W X Y Z