Song name
# A B C D E F G H I J K L M N O P Q R S T U V W X Y Z

Maylene And The Sons Of Disaster - Is That A Threat Or A Promise tab

------------------------------------------------------------------------------
Is that a threat or a promise? - Maylene & the  sons of disaster
-------------------------------------------------------------------------------
Tabbed by: UO777
Email: UO777@yahoo.com

Tuning: Drop D

(4X)
e|-------------------------------------------------------------------------|
B|-------------------------------------------------------------------------|
G|-------------------------------------------------------------------------|
D|---------3--0----------3--0------0-0---------3--0---------3--0--0--------|
A|------------------------------3-------------------------------------4-3--|
E|--3--5----------3--5-------------------3--5---------3--5-----------------|


e|-------------------------------------------------------------------------|
B|-------------------------------------------------------------------------|
G|-------------------------------------------------------------------------|
D|--3-3--5-0------3-3--5-0------3-3--5-0--------------0--------------------|
A|--3-3--5-0------3-3--5-0------3-3--5-0------------3----------------------|
E|--3-3--5-0------3-3--5-0------3-3--5-0--0-3-0-3-0------------------------|

(4X)
e|-------------------------------------------------------------------------|
B|-------------------------------------------------------------------------|
G|-------------------------------------------------------------------------|
D|--5--3--0-3-0-----3-0----------------------------------------------------|
A|--5--3--0-3-0-3-5--------------------------------------------------------|
E|--5--3--0-3-0------------------------------------------------------------|

(2X)
e|-------------------------------------------------------------------------|
B|-------------------------------------------------------------------------|
G|-------------------------------------------------------------------------|
D|---------3--0----------3--0------0-0---------3--0---------3--0--0--------|
A|------------------------------3-------------------------------------4-3--|
E|--3--5----------3--5-------------------3--5---------3--5-----------------|


e|-------------------------------------------------------------------------|
B|-------------------------------------------------------------------------|
G|-------------------------------------------------------------------------|
D|--3-3--5-0----5--3--0-3-0----3-3--5-0----5--3--0-3-0---------------------|
A|--3-3--5-0----5--3--0-3-0----3-3--5-0----5--3--0-3-0--3-3-3-3-3-3-3------|
E|--3-3--5-0----5--3--0-3-0----3-3--5-0----5--3--0-3-0---------------------|


e|-------------------------------------------------------------------------|
B|-------------------------------------------------------------------------|
G|-------------------------------------------------------------------------|
D|--3-3--5-0----5--3--0-3-0----3-3--5-0----5--3--0-3-0---------------------|
A|--3-3--5-0----5--3--0-3-0----3-3--5-0----5--3--0-3-0---------------3-5-----|
E|--3-3--5-0----5--3--0-3-0----3-3--5-0----5--3--0-3-0-0-0-0-0-0-0-0-------|

(4X)
e|-------------------------------------------------------------------------|
B|-------------------------------------------------------------------------|
G|-------------------------------------------------------------------------|
D|--5--3--0-3-0----3-0-----------------------------------------------------|
A|--5--3--0-3-0-3-5--------------------------------------------------------|
E|--5--3--0-3-0------------------------------------------------------------|

(3X)
e|-------------------------------------------------------------------------|
B|-------------------------------------------------------------------------|
G|-------------------------------------------------------------------------|
D|--------------------------3---------------6-5-3--------------------------|
A|--3-----------------3--5-----5---5--3--5--------5-3----------------------|
E|-------5-----0-3-0-------------------------------------------------------|


e|-------------------------------------------------------------------------|
B|-------------------------------------------------------------------------|
G|-------------------------------------------------------------------------|
D|----------5-----0-3-0----------------------------------------------------|
A|--3-------5-----0-3-0----------------------------------------------------|
E|----------5-----0-3-0----------------------------------------------------|

(3X)
e|-------------------------------------------------------------------------|
B|-------------------------------------------------------------------------|
G|-------------------------------------------------------------------------|
D|-------------------------------------------------------------------------|
A|---------------------3-5-------------------------------------------------|
E|--00--00--0--00--0-0-----------------------------------------------------|


e|-------------------------------------------------------------------------|
B|-------------------------------------------------------------------------|
G|-------------------------------------------------------------------------|
D|-------------------------------------------------------------------------|
A|-------------3-3-3-3-3-3-3-3---------------------------------------------|
E|--00--00--0--------------------------------------------------------------|

(8X)
e|-------------------------------------------------------------------------|
B|-------------------------------------------------------------------------|
G|-------------------------------------------------------------------------|
D|--5--3--0-3-0-----3-0----------------------------------------------------|
A|--5--3--0-3-0-3-5--------------------------------------------------------|
E|--5--3--0-3-0------------------------------------------------------------|
Tap to rate this tab
# A B C D E F G H I J K L M N O P Q R S T U V W X Y Z