Guitaretab - guitar tabs
Song name
# A B C D E F G H I J K L M N O P Q R S T U V W X Y Z

Maylene And The Sons Of Disaster - Darkest Of Kin tab

Tuning: Drop D

p = Pull of
b = bend
s = Slide
  
Solo:
e------------------------------------------------------------------------|
B10h13b-10-10h13p10s8h10p8----------------------13------10-------------|
G--------------------------10-12h1410h12p10---12b12r-10-10-------------|
D------------------------------------------12---------------12p1010h12-|
A---------------------------------------------------------------12-----|
D------------------------------------------------------------------------|

[ Tab from: http://www.guitaretab.com/m/maylene-and-the-sons-of-disaster/93053.html ]
e------------------------10----------------------------------------------|
B-10-12-10----13-------10------------------------------10h12p10-10-------|
G-10-12-1012b-10--12b-----12p1010h12--12h14s10--10--10h12p10-10-------|
D-----------------------------------------------------------------------|
A----------------------------------------------------------------------|
D------------------------------------------------------------------------|

e-------------------------------------10---------------------------------|
B-10-10---------------------------6---13b--------------------------------|
G-10-10---------------------5h7p6----------------------------------------|
D------12-------------33---7--------------------------------------------|
A---------3h5p3-5-3h5---5----------------------------------------------|
D---------------5--------------------------------------------------------|

I think this is pretty close, please add to it if you find mistakes.
Related for Darkest Of Kin tab