Song name
# A B C D E F G H I J K L M N O P Q R S T U V W X Y Z

Maylene And The Sons Of Disaster - Death Is An Alcoholic tab

------------------------------------------------------------------------------
         Death is an Alcoholic - Maylene and the Sons of Disaster
------------------------------------------------------------------------------


Tabbed by: Michael Cook
Email: michaelcook01@yahoo.com
MySpace: myspace.com/michaeldcook

Everything you need to play the song. If there are any questions, comments, or 
feel free to contact me.

Tuning: Drop D - DADGBe

e|-------------------------------------------------|
B|-------------------------------------------------|
G|-------------------------------------------------|
D|-2-0-22---/5-2-------2p0-------------------------|
A|-2-0-22--------5-2-5-----------------------------|
D|-2-0-22------------------------------------------|
                 . . .

e|-------------------------------------------------|
B|-------------------------------------------------|
G|-------------------------------------------------|
D|-2-0-2-5--2-0-2----------------------------------|
A|-2-0-2-5--2-0-2--1p0-----------------------------|
D|-2-0-2-5--2-0-2------5---------------------------|

(I couldn't hear the lead well enough to tab out)
e|-------------------------------------------------|
B|-------------------------------------------------|
G|-----5-------------------------------------------|
D|-2-0-5-------------------------------------------|
A|-2-0-3-------------------------------------------|
D|-2-0---------------------------------------------|

e|-------------------------------------------------|
B|-------------------------------------------------|
G|-------------------------------------------------|
D|-----------0-22-2--------------------------------|
A|-----2-----0-22-2--------------------------------|
D|-2-5---5-2-0-22-2--------------------------------|

e|-------------------------------------------------|
B|-------------------------------------------------|
G|-------------------------------------------------|
D|-------------------------------------------------|
A|-------------------------------------------------|
D|-7-7-7-7-8-7-0------2-2-2-3-5-3-2----------------|

e|----------------------------------------|--------|
B|----------------------------------------|--------|
G|----------------------------------------|--------|
D|----------------------------------------|-555555-|
A|----------------------------------------|-555555-|
D|-777777777777777870--22222222222222222--|-555555-|

e|-------------------------------------------------|
B|-------------------------------------------------|
G|-------------------------------------------------|
D|-202-202-----------------------------------------|
A|-202-202--8750575--------------------------------|
D|-202-202--8750575--------------------------------|

e|-------------------------------------------------|
B|-------------------------------------------------|
G|-----5-----------55555---------------------------|
D|-2-0-5-5-4-0-2-0-55555---------------------------|
A|-2-0-3-------2-0-33333---------------------------|
D|-2-0---------2-0---------------------------------|


| /  slide up
| \  slide down
| h  hammer-on
| p  pull-off
| ~  vibrato
| +  harmonic
| x  Mute note
===============================================================================
Tap to rate this tab
 
# A B C D E F G H I J K L M N O P Q R S T U V W X Y Z