Guitaretab - guitar tabs
Song name
# A B C D E F G H I J K L M N O P Q R S T U V W X Y Z

Maylene And The Sons Of Disaster - Death Is An Alcocholic tab

Maylene and the sons of disaster

Death is an alcoholic


this like my first tab so yeah it sounds right but if i am wrong e mail me at  santacruzsrider@hotmail.com


Riff 1
----------------------------------------------------------------|        8x
----------------------------------------------------------------|
------------4/5-2--------2-0------------------------------------|
2-0-2---2--------5-2-5------------------------------------------|
2-0-2---2-------------------------------------------------------|
2-0-2---2-------------------------------------------------------|
                 ......
Riff 2
------------------------------------------------------------------|
------------------------------------------------------------------|        4x
------------------------------------------------------------------|
2-0-2ó2-----------------------------------------------------------|
2-0-2---2---------------------------------------------------------|
2-0-2---2---------------------------------------------------------|
(On the 4 time do the little fill on the begging)

Riff 3
-----------------------------------------------------------------|
-----------------------------------------------------------------|      4x
-----------------------------------------------------------------|
2-0-2---5----2-0-2-8-7-5-----------------------------------------|
2-0-2---5----2-0-2-8-7-5-----------------------------------------|
2-0-2---5----2-0-2-8-7-5-----------------------------------------|
[ Tab from: http://www.guitaretab.com/m/maylene-and-the-sons-of-disaster/93360.html ]
Riff 4
----------------------------------------------------------------|
----------------------------------------------------------------|      4x
----------------5555555555--------------------------------------|
222220000005555555555---5--4--2---------------------------------|
222220000003333333333---5--4--2---------------------------------|
22222000000------------------5--4--2----------------------------|

Riff 5
----------------------------------------------------------------|
----------------------------------------------------------------|      3x
----------------------------------------------------------------|
---------------2-2---2------------------------------------------|
-----2--------2-2---2-------------------------------------------|
2-4---4-2-0-2-2---2---------------------------------------------|

Riff 6
----------------------------------------------------------|
----------------------------------------------------------|
----------------------------------------------------------|
----------------------------------------------------------|
----------------------------------------------------------|
/77778-7-5-2222-3-5-3-2-----------------------------------|       4x

Riff 7
---------------------------------------------------------------|
---------------------------------------------------------------|
---------------------------------------------------------------|
---------------------------------------------------------------|
---------------------------------------------------------------|      2x
/7777777777777777-8-7-5-222222222222222------------------------|

Riff 8
---------------------------------------------------------|
---------------------------------------------------------|
---------------------------------------------------------|
2-0-2-------2-0-2-------8-7-5-0-5-7-5--------------------|
2-0-2-------2-0-2-------8-7-5-0-5-7-5--------------------|
2-0-2-------2-0-2-------8-7-5-0-5-7-5--------------------|     2x


thatís it just repeat riff 3 and 4 till it ends
Related for Death Is An Alcocholic tab