Guitaretab - guitar tabs
Song name
# A B C D E F G H I J K L M N O P Q R S T U V W X Y Z

Maylene And The Sons Of Disaster - Dont Ever Cross A Trowell tab

Tuning Drop D


* = Palm mute
p = Pull of
b = bend
/ = Slide
~ = Ring

This is the best song from maylene's new album and this is also my first tab so please rate it.

Intro/verse

e--------------------------------------------|
B--------------------------------------------|
G--------------------------------------------|
D--7--10--7--0--5--7-0--7-10--7--5-5--7---|
A---5---8--5--0--3--5--0--5---8--5--3-3-5---|
D--------------------------------------------|

e------------------------------------------------------------------|
B------------------------------------------------------------------|
G------------------------------------------------------------------|
D--7--10--7--0--5--7-0--7-10--7--512p10b---------- x   4-------|
A---5---8--5--0--3--5--0--5---8--5--3-------12---------------------|
D------------------------------------------------------------------|

Verse pt.2

e-------------------------------------------------------------------------|
B-------------------------------------------------------------------------|
G-------------------------------------------------------------------------|
D---7~---------------------------7-/-5-/7~-------------------------------|
A---5~--5-5-5-5-5-5-5-5-5-5-5-5--5/-3-/-5~---5-5-5-5-5-5-5-5-5-5-5-55---|
D-------------------------------------------------------------------------|
        * * * * * * * * * * * *            * * * * * * * * * * * * *

e-------------------------------------------------------------------------|
B-------------------------------------------------------------------------|
G-------------------------------------------------------------------------|
D-7-/-5/-7~--------------------7-/-5/-7~--------------------------------|
A-5/-3/-5~-5-5-5-5-5-5-5-5-5--5-/-3/-5~--555-5-5-5-5-5-5-5-5-5-5-55-|
D-------------------------------------------------------------------------|
             * * * * * * * * *           * * * * * * * * * * * * * * *

e----------------------------------------------------|
B----------------------------------------------------|
G----------------------------------------------------|
D---7-/-5---7~---------------------------7-7-7-------|
A---5-/-3-/-5~--5-5-5-5-5-5-5-5-5-5-5-5--55-5-----|
D----------------------------------------------------|
                * * * * * * * * * * * *

Pre chorus/chorus

e----------------------------------------------|
B----------------------------------------------|
G---7-7-7-7-7-7-7-7-7-7-7--7-/-5-/-7--   ------|
D---x-x-x-x-x-x-x-x-x-x-x-x-/-x-/-x--  x 3 ---|
A---5-5-5-5-5-5-5-5-5-5-5--5-/-3/-5-----------|
D----------------------------------------------|

e-----------------------------------------|
B-----------------------------------------|
G----7-7-7-7-7-7-7-7-7-7-7-7--------------|
D----x-x-x-x-x-x-x-x-x-x-x-x---73-0~-----|
A----5-5-5-5-5-5-5-5-5-5-5-5---73-0~-----|
D------------------------------73-0~-----|


Chorus thing

e---------------------------------------------------------------------------|
B---------------------------------------------------------------------------|
G---------------------------------------------------------------------------|
D-7-3-0--0-0-----------5-3--0~--7-3-0~-----------5-3--0~---7-3-0~-----------|
A-7-3-0--0-0--3-5-3----5-3--0~--7-3-0~--3-5-3----5-3--0~---7-3-0~--3-5-3----|
D-7-3-0--0-0--------5--5-3--0~--7-3-0~--------5--5-3--0~---7-3-0~-----------|
         * *

e------------|
B------------|
G------------|
D------------|
A------------|
D-5-/-------|


Post chorus
[ Tab from: http://www.guitaretab.com/m/maylene-and-the-sons-of-disaster/94836.html ]
e------------------------------------------------------------------|
B------------------------------------------------------------------|
G------------------------------------------------------------------|
D-5b--3-----3-----------3b--0-5b--3-----3-------------------------|
A-------5-0---5-0-3-5-0-------------5-0---5-0-3-50-5b---- x 4  --|
D------------------------------------------------------------------|


Bridge/Verse

e---------------------------------------------------------------------------|
B---------------------------------------------------------------------------|
G---------------------------7/-5-/-7--------------------------7-/-5-/-7----|
D-0--0-0-0-0-0-0-0-0-0-0-0-7/-5-/-7--0-0-0-0-0-0-0-0-0-0-0-0-7-/-5-/-7----|
A-0--0-0-0-0-0-0-0-0-0-0-0-5/-3-/-5--0-0-0-0-0-0-0-0-0-0-0-0-5-/-3-/-5----|
D-0--0-0-0-0-0-0-0-0-0-0-0------------0-0-0-0-0-0-0-0-0-0-0-0--------------|

      * * *   * * *   * * *              * * *   * * *   * * *

e---------------------------------------------------------------|
B---------------------------------------------------------------|
G--------------------------7/-5-/-7----------------------------|
D-0--0-0-0-0-0-0-0-0-0-0-0-7/-5-/-7--0-0-0-0-0-0-0-0-0-0-0-0---|
A-0--0-0-0-0-0-0-0-0-0-0-0-5/-3-/-5--0-0-0-0-0-0-0-0-0-0-0-0---|
D-0--0-0-0-0-0-0-0-0-0-0-0------------0-0-0-0-0-0-0-0-0-0-0-0--|

     * * *   * * *   * * *              * * *   * * *   * * *
e---------------|
B---------------|
G---7-7-7-7-7---|
D---7-7-7-7-7---|
A---5-5-5-5-5---|
D---------------|


Louder Verse

e--------------------------------------------------------------|
B--------------------------------------------------------------|
G---7-7-7-7-7-7-7-7-7-7-7--7-/-5-/-7---7-7-7-7-7-7-7-7-7-7-7-7-|
D---x-x-x-x-x-x-x-x-x-x-x-x-/-x-/-x---x-x-x-x-x-x-x-x-x-x-x-x-|
A---5-5-5-5-5-5-5-5-5-5-5--5-/-3/-5---5-5-5-5-5-5-5-5-5-5-5-5-|
D--------------------------------------------------------------|

e---------------------------------------------------------------------------|
B---------------------------------------------------------------------------|
G-7-/-5-/-7---7-7-7-7-7-7-7-7-7-7-7--7-/-5-/-7---7-7-7-7-7-7-7-7-7-7-7-7---|
D-x-/-x-/-x---x-x-x-x-x-x-x-x-x-x-x-x-/-x-/-x---x-x-x-x-x-x-x-x-x-x-x-x----|
A-5-/-3-/-5---5-5-5-5-5-5-5-5-5-5-5--5-/-3/-5---5-5-5-5-5-5-5-5-5-5-5-5----|
D---------------------------------------------------------------------------|

e------------------|
B------------------|
G--10--9--7--5--7--|
D-10--9--7--5--7--|
A---8--7--5--3--5--|
D------------------|


  Intro thing

e--------------------------------------------|
B--------------------------------------------|
G--------------------------------------------|
D--7--10--7--0--5--7-0--7-10--7--5-5-7----|
A---5---8--5--0--3--5--0--5---8--5--3-3-5----|
D--------------------------------------------|

e-------------------------------------------------------------------|
B-------------------------------------------------------------------|
G-------------------------------------------------------------------|
D--7--10--7--0--5--7-0--7-10--7--5-12p10b-------------x 2-------|
A---5---8--5--0--3--5--0--5---8--5--3--------12---------------------|
D-------------------------------------------------------------------|


Ending/chorus

e-------------------------------------------------------------------------|
B-------------------------------------------------------------------------|
G-------------------------------------------------------------------------|
D--8~---8-7~----7-3-0~----7-3--0-00-0-0--0-00-0-0---7-3--0~---7-3-------|
A---8~---8-7~----7-3-0~----7-3--0-00-0-0--0-00-0-0---7-3--0~---7-3-------|
D---8~---8-7~----7-3--0~----7-3--0-00-0-0--0-00-0-0---7-3-0~---7-3-------|
                                 * ** * *  * ** * *
e--------------------------------|
B--------------------------------|
G--------------------------------|
D----0-00-0-0--0-00-0-0---x 19--|
A-----0-00-0-0--0-00-0-0---    --|
D-----0-00-0-0--0-00-0-0---------|
      * ** * *  * ** * *



ending

e-----------|
B-----------|
G-----------|
D----00-0--|
A-----00-0--|
D-----00-0--|
Related for Dont Ever Cross A Trowell tab