Song name
# A B C D E F G H I J K L M N O P Q R S T U V W X Y Z

Maylene And The Sons Of Disaster - Tale Of The Runaways tab

Maylene And The Sons Of Disaster
Tale Of The Runaways
Drop D

Ny first tab, hope you enjoy it.


Guitar I
E|----------------------------------------------------------------||
B|----------------------------------------------------------------||
G|-----0---------0---------0--------------------------------------||
D|--3---3-3---3---3-3---3---3-3-----------------------------------|| X 8
A|-5-5---5---5-5---5---5-5---5------------------------------------||
D|0---------3---------5----------0-3-0----------------------------||

Guitar II
E|----------------------------------------------------------------||
B|----------------------------------------------------------------||
G|----------------------------------------------------------------||
D|--------3---5-3-------------------------------------------------|| X 6
A|--0H3H5--5-----5-3----------------------------------------------||
D|0--------------------0-3-0--------------------------------------||
Tap to rate this tab
# A B C D E F G H I J K L M N O P Q R S T U V W X Y Z