Song name
# A B C D E F G H I J K L M N O P Q R S T U V W X Y Z

Mayonnaise - Sinungaling tab

Band / Artist :Mayonnaise  	
Song title :Sinungaling
Album :Tersera

Tabbed By: Daniel M Andres  ..........Nonong_18@hotmail.com


Paki Rate



Intro 1: both guitar 1 and 2

e-------------------------------------|
b-------------------------------------|
g-------------------------------------| 2*
D--11---7---9----9--------------------|
A----------------7--------------------|
E--9----5---7-------------------------|


Intro 2:

Guitar 1:

e-------------------------------------|
b-------------------------------------|
g-------------------------------------| 2*
D--11---7---9----9--------------------|
A----------------7--------------------|
E--9----5---7-------------------------|


Guitar 2

e-----------------------------------------------------------------|
b-----------10----9-----/12-9-10-----------10-9-------------------|
g--------10----------/9----------9------10------/9----------------| 
D--9--11----------------------------9-11-----------/11--99999-----|2x
A-----------------------------------------------------------------|
E-----------------------------------------------------------------|


Verse:

Kahit na maubos pa
ang luha ng aking mata
itutuloy ko lang ito
masusundan pa ng takbo

umilipad ang isip ko
dala dala ang tinig mo
sumisilip sa utak ko
kung meron pang matatanto

e--------------------------------------|
b--------------------------------------|
g--------------------------------------| 4*
D-----7---11----9----------------------|
A--------------------------------------|
E-----5---9-----7----------------------|

di mo makita

e--------------------------------------|
b--------------------------------------|
g--------------------------------------| 
D-----9---7-7-----9--------------------|
A----11---5-5-----7--------------------|
E--------------------------------------|

Chorus:

sinungaling
walang masabi
di na babalik
ang dati kong pag-ibig

e--------------------------------------|
b--------------------------------------|
g--------------------------------------| 
D-----7---9------11----7---------------|
A---------7------------5---------------|
E-----5----------9---------------------|


Adlib 1:

e-------------------------------------|
b-------------------------------------|
g-------------------------------------| 2*
D--11---7---9----9--------------------|
A----------------7--------------------|
E--9----5---7-------------------------|

Verse 2:

ilang beses na nangyari
ako pa rin ang sumasabit
wala ka ng masusumbat
hinde ka rin nagbubuhat

tuloy tuloy ang problema
tuloy tuloy ang pag iba
sana lang aking sinta
o sana lang magising ka

e--------------------------------------|
b--------------------------------------|
g--------------------------------------| 4*
D-----7---11----9----------------------|
A--------------------------------------|
E-----5---9-----7----------------------|


di mo makita

e--------------------------------------|
b--------------------------------------|
g--------------------------------------| 
D-----9---7-7-----9--------------------|
A----11---5-5-----7--------------------|
E--------------------------------------|

Chorus :

sinungaling
walang masabi
di na babalik
ang dati kong pag-ibig

e--------------------------------------|
b--------------------------------------|
g--------------------------------------| 
D-----7---9------11----7---------------|
A---------7------------5---------------|
E-----5----------9---------------------|


sinungaling
walang masabi
di na babalik
ang dati kong pag-ibig.........

e--------------------------------------|
b--------------------------------------|
g--------------------------------------| 
D-----7---9------11----7----9----------|
A---------7------------5----7----------|
E-----5----------9---------------------|

Adlib 2:

part1

Guitar 1

e-------------------------------------|
b-------------------------------------|
g-------------------------------------| 2x
D--11---7---9----9--------------------|
A----------------7--------------------|
E--9----5---7-------------------------|


part2

Guitar 1:

e-------------------------------------|
b-------------------------------------|
g-------------------------------------| 2x
D--11---7---9----9--------------------|
A----------------7--------------------|
E--9----5---7-------------------------|


Guitar 2

e-----------------------------------------------------------------|
b-----------10----9-----/12-9-10-----------10-9-------------------|
g--------10----------/9----------9------10------/9----------------| 
D--9--11----------------------------9-11-----------/11--99999-----|2x
A-----------------------------------------------------------------|
E-----------------------------------------------------------------|

Final :

Guitar 1

e-------------------------------------|
b-------------------------------------|
g-------------------------------------| 2x
D--9---11--13----15---17--------------|
A-------------------------------------|
E--7---9---11----13---15--------------|

Chorus :

sinungaling
walang masabi
di na babalik
ang dati kong pag-ibig

e--------------------------------------|
b--------------------------------------|
g--------------------------------------| 
D-----7---9------11----7---------------|
A---------7------------5---------------|
E-----5----------9---------------------|


sinungaling
walang masabi
di na babalik
ang dati kong pag-ibig.........

e--------------------------------------|
b--------------------------------------|
g--------------------------------------| 
D-----7---9------11----7----9----------|
A---------7------------5----7----------|
E-----5----------9---------------------|

Ending :

 both guitar 1 and 2

e-------------------------------------|
b-------------------------------------|
g-------------------------------------| 2*
D--11---7---9----9--------------------|
A----------------7--------------------|
E--9----5---7-------------------------|

then next is....

Guitar 1:

e-------------------------------------|
b-------------------------------------|
g-------------------------------------| 2*
D--11---7---9----9--------------------|
A----------------7--------------------|
E--9----5---7-------------------------|


Guitar 2

e-----------------------------------------------------------------|
b-----------10----9-----/12-9-10-----------10-9-------------------|
g--------10----------/9----------9------10------/9----------------| 
D--9--11----------------------------9-11-----------/11--99999-----|2x
A-----------------------------------------------------------------|
E-----------------------------------------------------------------|

Plzzzz rate
Tap to rate this tab
# A B C D E F G H I J K L M N O P Q R S T U V W X Y Z