Song name
# A B C D E F G H I J K L M N O P Q R S T U V W X Y Z

Mayonnaise - Panaginip tab

Intro:
Guitar 2:
[code]
e|-----0------0--------------------|
B|---------------------------------|
G|---------------------------------|  4x times ung pangatlo distorted n
D|--4----5/6/5---2-2/4-2-----------|
A|---------------------------------|
E|---------------------------------|[/code]

Guitar 1: pasok sa pangatlong lead..

F#m-A-Em (power chords po)

Verse 1:

Guitar 1:
F#m    A             D    
 Bigla akong nawiwindang
F#m    A             D    
 Wala naman tinatamasa
F#m    A             D    
 Ayoko nang isipin pa
F#m    A             D    
 Bigla akong tinatamaan

Guitar 2:
Verse 1:

Ipasok nio to sa chords na D distorted xa
e|---------------------------------|
B|--2x-2x-2x—-2h3-2h3—2h3----------|
G|--2x-2x-2x--2---2---2------------|   4x  
D|---------------------------------|
A|---------------------------------|
E|---------------------------------|

*note* yang X jan patayin niu agad ung string baleh hindi xa dapat mag prolonged.. gets????????

REFRAIN:
B5   C#5     D
Ayoko na sa ‘yo

CHORUS:
 A
Ayoko nang isipin
 E
Ayoko nang ulitin
 F#m
Ayoko nang gumising
         D- C#5-B5  D- C#5-B5
Sa ‘king panaginip, panaginip (2x)


Verse 2: (do Verse 1 chords)
Wala ka bang ibang alam
Isang anghel na nasa lupa
Ayoko nang tignan ka pa
Lalo akong napapa-asa

[Repeat REFRAIN]
[Repeat CHORUS]

ADLIB: (F#m – palm mute)
e|-----------------------------------------|
B|------------------------33--22-----------|
G|-----------------------------------------|  
D|--4-4-4-4-4-4-4-4------------------------|
A|--4-4-4-4-4-4-4-4-(palm muted)-----------|
E|--2-2-2-2-2-2-2-2------------------------|

Ayoko, ayoko na sa ‘yo

[Repeat CHORUS twice]

Outro:
e|-----------------------------------------|
B|-----0-3-0-5-0-6-0--5--------------------|
G|-----------------------------------------|  
D|-----------------------------------------|
A|-----------------------------------------|
E|-----------------------------------------|

Bagsak sa F#m


*yan n po…
Mabuhay ang mga rakista!!!
Hehehe
Itz me mharlon V
Tap to rate this tab
# A B C D E F G H I J K L M N O P Q R S T U V W X Y Z