Song name
# A B C D E F G H I J K L M N O P Q R S T U V W X Y Z

Mayonnaise - Synesthesia tab

Tuning - ( E B G D A E )


Intro:
I
|----------------------------19---|-------------------------------19------|
|------17--------------17------17-|---------17--------------17------17----|
|---16---16----16----16---16------|------16---16----16----16---16---------|
|-19---------19----19-------------|---19---------19-----19----------------|
|---------------------------------|---------------------------------------|
|---------------------------------|---------------------------------------|

|----------------------------19---|---------------------------------------|
|------17--------------17------17-|-----17--17--17--17--17-17171717-------|
|---16----16--------16----16------|---------------------------------------|
|-19------------19----------------|---19--19--19--19--19---19191919-------|
|---------------------------------|---------------------------------------|
|---------------------------------|---------------------------------------|
II
  A              E                 F#m                 D
|---------------------------------|--------------------------------------|
|-19/-17/-16/-12~-19/-17/-16/-10~-|-10-12-(12)/14-12~--9-10-(10)/12-10~--|
|---------------------------------|--------------------------------------|
|-16/-14/-13/-9~--16/-14/-13/-7~--|-7--9---(9)/11-9~---6-7---(7)/9--7~---|2x
|---------------------------------|--------------------------------------|
|---------------------------------|--------------------------------------|

Intro: A E F#m D 
Verse : F#m E D 4x
Verse2: F#m E D 4x E
Chorus: A E F#m D 2x
Do introII
Verse : F#m E D 4x
Verse2: F#m E D 4x E
Chorus: A E F#m D 2x
Bridge: Bm C#m D C#m
        Bm C#m D Dm
Chorus: A E F#m D 2x

Tap to rate this tab
 
# A B C D E F G H I J K L M N O P Q R S T U V W X Y Z