Song name
# A B C D E F G H I J K L M N O P Q R S T U V W X Y Z

Mayonnaise - Synesthesia tab

Intro:

|----------------------------19---|-------------------------------19------|
|------17--------------17------17-|---------17--------------17------17----|
|---16---16----16----16---16------|------16---16----16----16---16---------|
|-19---------19----19-------------|---19---------19-----19----------------|
|---------------------------------|---------------------------------------|
|---------------------------------|---------------------------------------|

|----------------------------19---|---------------------------------------|
|------17--------------17------17-|-----17--17--17--17--17-17171717-------|
|---16----16--------16----16------|---------------------------------------|
|-19------------19----------------|---19--19--19--19--19---19191919-------|
|---------------------------------|---------------------------------------|
|---------------------------------|---------------------------------------|
  



 rhythm
 A-E-F#m-D

e|---------------------------------------------------------------------------------|
B|---------------------------------------------------------------------------------|
G|---------------------------------------------------------------------------------|
D|--9-----7-----6---------------9-----7----6-----7-----7--9-9/11--9---6--7--7/9---7|            2x
A|--------------------9------------------------------------------------------------|
E|--7-----5-----4-----7---------7-----5----4-----5---------------------------------|

verse:
F#m-E-D

chorus:
A-E-F#m-D

bridge:
B-C#-D-C#  2x


YaN LAng alam ko..ahehehe..kasabay yan nung rhythm ng guitar sa chorus ska 
intro..tapos parehas lang un intro saka outro..

alay ko yan sau CARLA..MAHAL NA MAHAL PA DIN KITA HANGANG NGAUN..at inaantay pa 
rin kita na babalik ka sana...
Tap to rate this tab
 
# A B C D E F G H I J K L M N O P Q R S T U V W X Y Z